  0
SECTION
  2
HEADER
  9
$ACADVER
  1
AC1014
  9
$ACADMAINTVER
 70
     9
  9
$DWGCODEPAGE
  3
ANSI_1250
  9
$INSBASE
 10
0.0
 20
0.0
 30
0.0
  9
$EXTMIN
 10
-53.9481
 20
-40.5924
 30
0.0
  9
$EXTMAX
 10
53.6601
 20
40.7989
 30
0.0
  9
$LIMMIN
 10
0.0
 20
0.0
  9
$LIMMAX
 10
12.0
 20
9.0
  9
$ORTHOMODE
 70
     0
  9
$REGENMODE
 70
     1
  9
$FILLMODE
 70
     1
  9
$QTEXTMODE
 70
     0
  9
$MIRRTEXT
 70
     1
  9
$DRAGMODE
 70
     2
  9
$LTSCALE
 40
1.0
  9
$OSMODE
 70
    37
  9
$ATTMODE
 70
     1
  9
$TEXTSIZE
 40
0.2
  9
$TRACEWID
 40
0.05
  9
$TEXTSTYLE
  7
STANDARD
  9
$CLAYER
  8
0
  9
$CELTYPE
  6
BYLAYER
  9
$CECOLOR
 62
   256
  9
$CELTSCALE
 40
1.0
  9
$DELOBJ
 70
     1
  9
$DISPSILH
 70
     0
  9
$DIMSCALE
 40
1.0
  9
$DIMASZ
 40
0.18
  9
$DIMEXO
 40
0.0625
  9
$DIMDLI
 40
0.38
  9
$DIMRND
 40
0.0
  9
$DIMDLE
 40
0.0
  9
$DIMEXE
 40
0.18
  9
$DIMTP
 40
0.0
  9
$DIMTM
 40
0.0
  9
$DIMTXT
 40
0.18
  9
$DIMCEN
 40
0.09
  9
$DIMTSZ
 40
0.0
  9
$DIMTOL
 70
     0
  9
$DIMLIM
 70
     0
  9
$DIMTIH
 70
     1
  9
$DIMTOH
 70
     1
  9
$DIMSE1
 70
     0
  9
$DIMSE2
 70
     0
  9
$DIMTAD
 70
     0
  9
$DIMZIN
 70
     0
  9
$DIMBLK
  1

  9
$DIMASO
 70
     1
  9
$DIMSHO
 70
     1
  9
$DIMPOST
  1

  9
$DIMAPOST
  1

  9
$DIMALT
 70
     0
  9
$DIMALTD
 70
     2
  9
$DIMALTF
 40
25.4
  9
$DIMLFAC
 40
1.0
  9
$DIMTOFL
 70
     0
  9
$DIMTVP
 40
0.0
  9
$DIMTIX
 70
     0
  9
$DIMSOXD
 70
     0
  9
$DIMSAH
 70
     0
  9
$DIMBLK1
  1

  9
$DIMBLK2
  1

  9
$DIMSTYLE
  2
STANDARD
  9
$DIMCLRD
 70
     0
  9
$DIMCLRE
 70
     0
  9
$DIMCLRT
 70
     0
  9
$DIMTFAC
 40
1.0
  9
$DIMGAP
 40
0.09
  9
$DIMJUST
 70
     0
  9
$DIMSD1
 70
     0
  9
$DIMSD2
 70
     0
  9
$DIMTOLJ
 70
     1
  9
$DIMTZIN
 70
     0
  9
$DIMALTZ
 70
     0
  9
$DIMALTTZ
 70
     0
  9
$DIMFIT
 70
     3
  9
$DIMUPT
 70
     0
  9
$DIMUNIT
 70
     2
  9
$DIMDEC
 70
     4
  9
$DIMTDEC
 70
     4
  9
$DIMALTU
 70
     2
  9
$DIMALTTD
 70
     2
  9
$DIMTXSTY
  7
STANDARD
  9
$DIMAUNIT
 70
     0
  9
$LUNITS
 70
     2
  9
$LUPREC
 70
     4
  9
$SKETCHINC
 40
0.1
  9
$FILLETRAD
 40
0.5
  9
$AUNITS
 70
     0
  9
$AUPREC
 70
     0
  9
$MENU
  1
.
  9
$ELEVATION
 40
0.0
  9
$PELEVATION
 40
0.0
  9
$THICKNESS
 40
0.0
  9
$LIMCHECK
 70
     0
  9
$CHAMFERA
 40
0.5
  9
$CHAMFERB
 40
0.5
  9
$CHAMFERC
 40
1.0
  9
$CHAMFERD
 40
0.0
  9
$SKPOLY
 70
     0
  9
$TDCREATE
 40
2456247.440266516
  9
$TDUPDATE
 40
2456247.440266528
  9
$TDINDWG
 40
0.0000000116
  9
$TDUSRTIMER
 40
0.0000000116
  9
$USRTIMER
 70
     1
  9
$ANGBASE
 50
0.0
  9
$ANGDIR
 70
     0
  9
$PDMODE
 70
     0
  9
$PDSIZE
 40
0.0
  9
$PLINEWID
 40
0.0
  9
$COORDS
 70
     1
  9
$SPLFRAME
 70
     0
  9
$SPLINETYPE
 70
     6
  9
$SPLINESEGS
 70
     8
  9
$ATTDIA
 70
     0
  9
$ATTREQ
 70
     1
  9
$HANDLING
 70
     1
  9
$HANDSEED
  5
112
  9
$SURFTAB1
 70
     6
  9
$SURFTAB2
 70
     6
  9
$SURFTYPE
 70
     6
  9
$SURFU
 70
     6
  9
$SURFV
 70
     6
  9
$UCSNAME
  2

  9
$UCSORG
 10
0.0
 20
0.0
 30
0.0
  9
$UCSXDIR
 10
1.0
 20
0.0
 30
0.0
  9
$UCSYDIR
 10
0.0
 20
1.0
 30
0.0
  9
$PUCSNAME
  2

  9
$PUCSORG
 10
0.0
 20
0.0
 30
0.0
  9
$PUCSXDIR
 10
1.0
 20
0.0
 30
0.0
  9
$PUCSYDIR
 10
0.0
 20
1.0
 30
0.0
  9
$USERI1
 70
     0
  9
$USERI2
 70
     0
  9
$USERI3
 70
     0
  9
$USERI4
 70
     0
  9
$USERI5
 70
     0
  9
$USERR1
 40
0.0
  9
$USERR2
 40
0.0
  9
$USERR3
 40
0.0
  9
$USERR4
 40
0.0
  9
$USERR5
 40
0.0
  9
$WORLDVIEW
 70
     1
  9
$SHADEDGE
 70
     3
  9
$SHADEDIF
 70
    70
  9
$TILEMODE
 70
     1
  9
$MAXACTVP
 70
    64
  9
$PINSBASE
 10
0.0
 20
0.0
 30
0.0
  9
$PLIMCHECK
 70
     0
  9
$PEXTMIN
 10
1.000000000000000E+20
 20
1.000000000000000E+20
 30
1.000000000000000E+20
  9
$PEXTMAX
 10
-1.000000000000000E+20
 20
-1.000000000000000E+20
 30
-1.000000000000000E+20
  9
$PLIMMIN
 10
0.0
 20
0.0
  9
$PLIMMAX
 10
12.0
 20
9.0
  9
$UNITMODE
 70
     0
  9
$VISRETAIN
 70
     1
  9
$PLINEGEN
 70
     0
  9
$PSLTSCALE
 70
     1
  9
$TREEDEPTH
 70
  3020
  9
$PICKSTYLE
 70
     1
  9
$CMLSTYLE
  2
STANDARD
  9
$CMLJUST
 70
     0
  9
$CMLSCALE
 40
1.0
  9
$PROXYGRAPHICS
 70
     1
  9
$MEASUREMENT
 70
     0
  0
ENDSEC
  0
SECTION
  2
CLASSES
  0
CLASS
  1
ACDBDICTIONARYWDFLT
  2
AcDbDictionaryWithDefault
  3
ObjectDBX Classes
 90
        0
280
     0
281
     0
  0
CLASS
  1
VISUALSTYLE
  2
AcDbVisualStyle
  3
ObjectDBX Classes
 90
     4095
280
     0
281
     0
  0
CLASS
  1
MATERIAL
  2
AcDbMaterial
  3
ObjectDBX Classes
 90
     1153
280
     0
281
     0
  0
CLASS
  1
DICTIONARYVAR
  2
AcDbDictionaryVar
  3
ObjectDBX Classes
 90
        0
280
     0
281
     0
  0
CLASS
  1
XRECORD
  2
AcDbXrecord
  3
AutoCAD 2000
 90
        0
280
     0
281
     0
  0
CLASS
  1
LWPOLYLINE
  2
AcDbPolyline
  3
AutoCAD 2000
 90
        0
280
     0
281
     1
  0
CLASS
  1
HATCH
  2
AcDbHatch
  3
AutoCAD 2000
 90
        0
280
     0
281
     1
  0
CLASS
  1
ACDBPLACEHOLDER
  2
AcDbPlaceHolder
  3
ObjectDBX Classes
 90
        0
280
     0
281
     0
  0
CLASS
  1
LAYOUT
  2
AcDbLayout
  3
ObjectDBX Classes
 90
        0
280
     0
281
     0
  0
ENDSEC
  0
SECTION
  2
TABLES
  0
TABLE
  2
VPORT
  5
8
330
0
100
AcDbSymbolTable
 70
     1
  0
VPORT
  5
29
330
8
100
AcDbSymbolTableRecord
100
AcDbViewportTableRecord
  2
*ACTIVE
 70
     0
 10
0.0
 20
0.0
 11
1.0
 21
1.0
 12
10.42990654205607
 22
4.5
 13
0.0
 23
0.0
 14
0.5
 24
0.5
 15
0.5
 25
0.5
 16
0.0
 26
0.0
 36
1.0
 17
0.0
 27
0.0
 37
0.0
 40
9.0
 41
1.972972972850329
 42
50.0
 43
0.0
 44
0.0
 50
0.0
 51
0.0
 71
     0
 72
   100
 73
     1
 74
     3
 75
     0
 76
     0
 77
     0
 78
     0
  0
ENDTAB
  0
TABLE
  2
LTYPE
  5
5
330
0
100
AcDbSymbolTable
 70
     6
  0
LTYPE
  5
14
330
5
100
AcDbSymbolTableRecord
100
AcDbLinetypeTableRecord
  2
BYBLOCK
 70
     0
  3

 72
    65
 73
     0
 40
0.0
  0
LTYPE
  5
15
330
5
100
AcDbSymbolTableRecord
100
AcDbLinetypeTableRecord
  2
BYLAYER
 70
     0
  3

 72
    65
 73
     0
 40
0.0
  0
LTYPE
  5
16
330
5
100
AcDbSymbolTableRecord
100
AcDbLinetypeTableRecord
  2
CONTINUOUS
 70
     0
  3
Solid line
 72
    65
 73
     0
 40
0.0
  0
LTYPE
  5
CE
330
5
100
AcDbSymbolTableRecord
100
AcDbLinetypeTableRecord
  2
NEW_LINE1
 70
     0
  3

 72
    65
 73
     4
 40
1.2
 49
0.5
 74
     4
 75
     0
340
0
 46
1.0
 50
0.0
 44
0.0
 45
0.0
 49
-0.3
 74
     4
 75
     0
340
0
 46
1.0
 50
0.0
 44
0.0
 45
0.0
 49
0.1
 74
     4
 75
     0
340
0
 46
1.0
 50
0.0
 44
0.0
 45
0.0
 49
-0.3
 74
     4
 75
     0
340
0
 46
1.0
 50
0.0
 44
0.0
 45
0.0
  0
LTYPE
  5
D0
330
5
100
AcDbSymbolTableRecord
100
AcDbLinetypeTableRecord
  2
NEW_LINE2
 70
     0
  3

 72
    65
 73
     4
 40
1.2
 49
0.5
 74
     4
 75
     0
340
0
 46
1.0
 50
0.0
 44
0.0
 45
0.0
 49
-0.3
 74
     4
 75
     0
340
0
 46
1.0
 50
0.0
 44
0.0
 45
0.0
 49
0.1
 74
     4
 75
     0
340
0
 46
1.0
 50
0.0
 44
0.0
 45
0.0
 49
-0.3
 74
     4
 75
     0
340
0
 46
1.0
 50
0.0
 44
0.0
 45
0.0
  0
LTYPE
  5
E1
330
5
100
AcDbSymbolTableRecord
100
AcDbLinetypeTableRecord
  2
NEW_LINE3
 70
     0
  3

 72
    65
 73
     4
 40
1.2
 49
0.5
 74
     4
 75
     0
340
0
 46
1.0
 50
0.0
 44
0.0
 45
0.0
 49
-0.3
 74
     4
 75
     0
340
0
 46
1.0
 50
0.0
 44
0.0
 45
0.0
 49
0.1
 74
     4
 75
     0
340
0
 46
1.0
 50
0.0
 44
0.0
 45
0.0
 49
-0.3
 74
     4
 75
     0
340
0
 46
1.0
 50
0.0
 44
0.0
 45
0.0
  0
LTYPE
  5
E3
330
5
100
AcDbSymbolTableRecord
100
AcDbLinetypeTableRecord
  2
NEW_LINE4
 70
     0
  3

 72
    65
 73
     4
 40
1.2
 49
0.5
 74
     4
 75
     0
340
0
 46
1.0
 50
0.0
 44
0.0
 45
0.0
 49
-0.3
 74
     4
 75
     0
340
0
 46
1.0
 50
0.0
 44
0.0
 45
0.0
 49
0.1
 74
     4
 75
     0
340
0
 46
1.0
 50
0.0
 44
0.0
 45
0.0
 49
-0.3
 74
     4
 75
     0
340
0
 46
1.0
 50
0.0
 44
0.0
 45
0.0
  0
LTYPE
  5
E5
330
5
100
AcDbSymbolTableRecord
100
AcDbLinetypeTableRecord
  2
NEW_LINE5
 70
     0
  3

 72
    65
 73
     2
 40
0.8
 49
0.5
 74
     4
 75
     0
340
0
 46
1.0
 50
0.0
 44
0.0
 45
0.0
 49
-0.3
 74
     4
 75
     0
340
0
 46
1.0
 50
0.0
 44
0.0
 45
0.0
  0
ENDTAB
  0
TABLE
  2
LAYER
  5
2
330
0
100
AcDbSymbolTable
 70
     2
  0
LAYER
  5
10
330
2
100
AcDbSymbolTableRecord
100
AcDbLayerTableRecord
  2
0
 70
     0
 62
     7
  6
CONTINUOUS
  0
LAYER
  5
40
330
2
100
AcDbSymbolTableRecord
100
AcDbLayerTableRecord
  2
ILUSTRACE
 70
     0
 62
     7
  6
CONTINUOUS
  0
ENDTAB
  0
TABLE
  2
STYLE
  5
3
330
0
100
AcDbSymbolTable
 70
     1
  0
STYLE
  5
11
330
3
100
AcDbSymbolTableRecord
100
AcDbTextStyleTableRecord
  2
STANDARD
 70
     0
 40
0.0
 41
1.0
 50
0.0
 71
     0
 42
0.2
  3
txt
  4

  0
ENDTAB
  0
TABLE
  2
VIEW
  5
6
330
0
100
AcDbSymbolTable
 70
     0
  0
ENDTAB
  0
TABLE
  2
UCS
  5
7
330
0
100
AcDbSymbolTable
 70
     0
  0
ENDTAB
  0
TABLE
  2
APPID
  5
9
330
0
100
AcDbSymbolTable
 70
     2
  0
APPID
  5
12
330
9
100
AcDbSymbolTableRecord
100
AcDbRegAppTableRecord
  2
ACAD
 70
     0
  0
APPID
  5
3F
330
9
100
AcDbSymbolTableRecord
100
AcDbRegAppTableRecord
  2
ODA
 70
     0
  0
ENDTAB
  0
TABLE
  2
DIMSTYLE
  5
A
330
0
100
AcDbSymbolTable
 70
     1
  0
DIMSTYLE
105
27
330
A
100
AcDbSymbolTableRecord
100
AcDbDimStyleTableRecord
  2
STANDARD
 70
     0
  3

  4

  5

  6

  7

 40
1.0
 41
0.18
 42
0.0625
 43
0.38
 44
0.18
 45
0.0
 46
0.0
 47
0.0
 48
0.0
140
0.18
141
0.09
142
0.0
143
25.4
144
1.0
145
0.0
146
1.0
147
0.09
 71
     0
 72
     0
 73
     1
 74
     1
 75
     0
 76
     0
 77
     0
 78
     0
170
     0
171
     2
172
     0
173
     0
174
     0
175
     0
176
     0
177
     0
178
     0
270
     2
271
     4
272
     4
273
     2
274
     2
340
11
275
     0
280
     0
281
     0
282
     0
283
     1
284
     0
285
     0
286
     0
287
     3
288
     0
  0
ENDTAB
  0
TABLE
  2
BLOCK_RECORD
  5
1
330
0
100
AcDbSymbolTable
 70
     1
  0
BLOCK_RECORD
  5
1F
330
1
100
AcDbSymbolTableRecord
100
AcDbBlockTableRecord
  2
*MODEL_SPACE
  0
BLOCK_RECORD
  5
1B
330
1
100
AcDbSymbolTableRecord
100
AcDbBlockTableRecord
  2
*PAPER_SPACE
  0
ENDTAB
  0
ENDSEC
  0
SECTION
  2
BLOCKS
  0
BLOCK
  5
20
330
1F
100
AcDbEntity
  8
0
100
AcDbBlockBegin
  2
*MODEL_SPACE
 70
     0
 10
0.0
 20
0.0
 30
0.0
  3
*MODEL_SPACE
  1

  0
ENDBLK
  5
21
330
1F
100
AcDbEntity
  8
0
100
AcDbBlockEnd
  0
BLOCK
  5
1C
330
1B
100
AcDbEntity
 67
     1
  8
0
100
AcDbBlockBegin
  2
*PAPER_SPACE
 70
     0
 10
0.0
 20
0.0
 30
0.0
  3
*PAPER_SPACE
  1

  0
ENDBLK
  5
1D
330
1B
100
AcDbEntity
 67
     1
  8
0
100
AcDbBlockEnd
  0
ENDSEC
  0
SECTION
  2
ENTITIES
  0
SPLINE
  5
41
330
1F
100
AcDbEntity
  8
ILUSTRACE
100
AcDbSpline
210
0.0
220
0.0
230
1.0
 70
    24
 71
     3
 72
     8
 73
     4
 74
     0
 42
0.0000000001
 43
0.0000000001
 40
0.0
 40
0.0
 40
0.0
 40
0.0
 40
1.0
 40
1.0
 40
1.0
 40
1.0
 10
-27.1148
 20
22.2161
 30
0.0
 10
-27.1148
 20
22.2161
 30
0.0
 10
-39.9821
 20
22.2161
 30
0.0
 10
-39.9821
 20
22.2161
 30
0.0
  0
SPLINE
  5
42
330
1F
100
AcDbEntity
  8
ILUSTRACE
100
AcDbSpline
210
0.0
220
0.0
230
1.0
 70
    24
 71
     3
 72
     8
 73
     4
 74
     0
 42
0.0000000001
 43
0.0000000001
 40
0.0
 40
0.0
 40
0.0
 40
0.0
 40
1.0
 40
1.0
 40
1.0
 40
1.0
 10
-39.9821
 20
34.8206
 30
0.0
 10
-39.9821
 20
34.8206
 30
0.0
 10
-39.9821
 20
22.2161
 30
0.0
 10
-39.9821
 20
22.2161
 30
0.0
  0
SPLINE
  5
43
330
1F
100
AcDbEntity
  8
ILUSTRACE
100
AcDbSpline
210
0.0
220
0.0
230
1.0
 70
    24
 71
     3
 72
     8
 73
     4
 74
     0
 42
0.0000000001
 43
0.0000000001
 40
0.0
 40
0.0
 40
0.0
 40
0.0
 40
1.0
 40
1.0
 40
1.0
 40
1.0
 10
-39.9821
 20
34.8206
 30
0.0
 10
-39.9821
 20
34.8206
 30
0.0
 10
-27.1148
 20
34.8206
 30
0.0
 10
-27.1148
 20
34.8206
 30
0.0
  0
SPLINE
  5
44
330
1F
100
AcDbEntity
  8
ILUSTRACE
100
AcDbSpline
210
0.0
220
0.0
230
1.0
 70
    24
 71
     3
 72
     8
 73
     4
 74
     0
 42
0.0000000001
 43
0.0000000001
 40
0.0
 40
0.0
 40
0.0
 40
0.0
 40
1.0
 40
1.0
 40
1.0
 40
1.0
 10
-27.1148
 20
22.2161
 30
0.0
 10
-27.1148
 20
22.2161
 30
0.0
 10
-27.1148
 20
34.8206
 30
0.0
 10
-27.1148
 20
34.8206
 30
0.0
  0
SPLINE
  5
45
330
1F
100
AcDbEntity
  8
ILUSTRACE
100
AcDbSpline
210
0.0
220
0.0
230
1.0
 70
    24
 71
     3
 72
     8
 73
     4
 74
     0
 42
0.0000000001
 43
0.0000000001
 40
0.0
 40
0.0
 40
0.0
 40
0.0
 40
1.0
 40
1.0
 40
1.0
 40
1.0
 10
-27.9027
 20
-3.7805
 30
0.0
 10
-27.9027
 20
-3.7805
 30
0.0
 10
-39.1939
 20
-3.7805
 30
0.0
 10
-39.1939
 20
-3.7805
 30
0.0
  0
SPLINE
  5
46
330
1F
100
AcDbEntity
  8
ILUSTRACE
100
AcDbSpline
210
0.0
220
0.0
230
1.0
 70
    24
 71
     3
 72
     8
 73
     4
 74
     0
 42
0.0000000001
 43
0.0000000001
 40
0.0
 40
0.0
 40
0.0
 40
0.0
 40
1.0
 40
1.0
 40
1.0
 40
1.0
 10
-39.1939
 20
22.2161
 30
0.0
 10
-39.1939
 20
22.2161
 30
0.0
 10
-39.1939
 20
-3.7805
 30
0.0
 10
-39.1939
 20
-3.7805
 30
0.0
  0
SPLINE
  5
47
330
1F
100
AcDbEntity
  8
ILUSTRACE
100
AcDbSpline
210
0.0
220
0.0
230
1.0
 70
    24
 71
     3
 72
     8
 73
     4
 74
     0
 42
0.0000000001
 43
0.0000000001
 40
0.0
 40
0.0
 40
0.0
 40
0.0
 40
1.0
 40
1.0
 40
1.0
 40
1.0
 10
-27.9027
 20
22.2161
 30
0.0
 10
-27.9027
 20
22.2161
 30
0.0
 10
-27.9027
 20
-3.7805
 30
0.0
 10
-27.9027
 20
-3.7805
 30
0.0
  0
SPLINE
  5
48
330
1F
100
AcDbEntity
  8
ILUSTRACE
100
AcDbSpline
210
0.0
220
0.0
230
1.0
 70
    24
 71
     3
 72
     8
 73
     4
 74
     0
 42
0.0000000001
 43
0.0000000001
 40
0.0
 40
0.0
 40
0.0
 40
0.0
 40
1.0
 40
1.0
 40
1.0
 40
1.0
 10
39.9778
 20
-25.7882
 30
0.0
 10
39.9778
 20
-25.7882
 30
0.0
 10
39.9778
 20
-7.4065
 30
0.0
 10
39.9778
 20
-7.4065
 30
0.0
  0
SPLINE
  5
49
330
1F
100
AcDbEntity
  8
ILUSTRACE
100
AcDbSpline
210
0.0
220
0.0
230
1.0
 70
    24
 71
     3
 72
    12
 73
     8
 74
     0
 42
0.0000000001
 43
0.0000000001
 40
0.0
 40
0.0
 40
0.0
 40
0.0
 40
0.3333333333333333
 40
0.3333333333333333
 40
0.3333333333333333
 40
0.3333333333333333
 40
1.0
 40
1.0
 40
1.0
 40
1.0
 10
39.9778
 20
-25.7882
 30
0.0
 10
39.9778
 20
-25.7882
 30
0.0
 10
39.4524
 20
-25.7882
 30
0.0
 10
39.4524
 20
-25.7882
 30
0.0
 10
39.4524
 20
-25.7882
 30
0.0
 10
39.4524
 20
-25.7882
 30
0.0
 10
37.3518
 20
-25.7882
 30
0.0
 10
37.3518
 20
-25.7882
 30
0.0
  0
SPLINE
  5
4A
330
1F
100
AcDbEntity
  8
ILUSTRACE
100
AcDbSpline
210
0.0
220
0.0
230
1.0
 70
     8
 71
     3
 72
     8
 73
     4
 74
     0
 42
0.0000000001
 43
0.0000000001
 40
0.0
 40
0.0
 40
0.0
 40
0.0
 40
1.0
 40
1.0
 40
1.0
 40
1.0
 10
37.3518
 20
-25.7882
 30
0.0
 10
37.1665
 20
-25.7882
 30
0.0
 10
36.5667
 20
-25.9075
 30
0.0
 10
36.5637
 20
-25.5255
 30
0.0
  0
SPLINE
  5
4B
330
1F
100
AcDbEntity
  8
ILUSTRACE
100
AcDbSpline
210
0.0
220
0.0
230
1.0
 70
    24
 71
     3
 72
    12
 73
     8
 74
     0
 42
0.0000000001
 43
0.0000000001
 40
0.0
 40
0.0
 40
0.0
 40
0.0
 40
0.3333333333333333
 40
0.3333333333333333
 40
0.3333333333333333
 40
0.3333333333333333
 40
1.0
 40
1.0
 40
1.0
 40
1.0
 10
36.5637
 20
-25.5255
 30
0.0
 10
36.5637
 20
-25.5255
 30
0.0
 10
36.5637
 20
-25.0003
 30
0.0
 10
36.5637
 20
-25.0003
 30
0.0
 10
36.5637
 20
-25.0003
 30
0.0
 10
36.5637
 20
-25.0003
 30
0.0
 10
36.5637
 20
-8.1941
 30
0.0
 10
36.5637
 20
-8.1941
 30
0.0
  0
SPLINE
  5
4C
330
1F
100
AcDbEntity
  8
ILUSTRACE
100
AcDbSpline
210
0.0
220
0.0
230
1.0
 70
     8
 71
     3
 72
    12
 73
     8
 74
     0
 42
0.0000000001
 43
0.0000000001
 40
0.0
 40
0.0
 40
0.0
 40
0.0
 40
0.3333333333333333
 40
0.3333333333333333
 40
0.3333333333333333
 40
0.3333333333333333
 40
1.0
 40
1.0
 40
1.0
 40
1.0
 10
36.5637
 20
-8.1941
 30
0.0
 10
36.5637
 20
-8.0394
 30
0.0
 10
36.4628
 20
-7.5759
 30
0.0
 10
36.6953
 20
-7.4415
 30
0.0
 10
36.6953
 20
-7.4415
 30
0.0
 10
36.8575
 20
-7.3482
 30
0.0
 10
37.324
 20
-7.4065
 30
0.0
 10
37.3518
 20
-7.4065
 30
0.0
  0
SPLINE
  5
4D
330
1F
100
AcDbEntity
  8
ILUSTRACE
100
AcDbSpline
210
0.0
220
0.0
230
1.0
 70
    24
 71
     3
 72
    12
 73
     8
 74
     0
 42
0.0000000001
 43
0.0000000001
 40
0.0
 40
0.0
 40
0.0
 40
0.0
 40
0.3333333333333333
 40
0.3333333333333333
 40
0.3333333333333333
 40
0.3333333333333333
 40
1.0
 40
1.0
 40
1.0
 40
1.0
 10
37.3518
 20
-7.4065
 30
0.0
 10
37.3518
 20
-7.4065
 30
0.0
 10
39.4524
 20
-7.4065
 30
0.0
 10
39.4524
 20
-7.4065
 30
0.0
 10
39.4524
 20
-7.4065
 30
0.0
 10
39.4524
 20
-7.4065
 30
0.0
 10
39.9778
 20
-7.4065
 30
0.0
 10
39.9778
 20
-7.4065
 30
0.0
  0
SPLINE
  5
4E
330
1F
100
AcDbEntity
  8
ILUSTRACE
100
AcDbSpline
210
0.0
220
0.0
230
1.0
 70
    24
 71
     3
 72
     8
 73
     4
 74
     0
 42
0.0000000001
 43
0.0000000001
 40
0.0
 40
0.0
 40
0.0
 40
0.0
 40
1.0
 40
1.0
 40
1.0
 40
1.0
 10
53.1071
 20
-20.6598
 30
0.0
 10
53.1071
 20
-20.6598
 30
0.0
 10
53.1071
 20
-12.5346
 30
0.0
 10
53.1071
 20
-12.5346
 30
0.0
  0
SPLINE
  5
4F
330
1F
100
AcDbEntity
  8
ILUSTRACE
100
AcDbSpline
210
0.0
220
0.0
230
1.0
 70
    24
 71
     3
 72
     8
 73
     4
 74
     0
 42
0.0000000001
 43
0.0000000001
 40
0.0
 40
0.0
 40
0.0
 40
0.0
 40
1.0
 40
1.0
 40
1.0
 40
1.0
 10
36.5637
 20
-20.7989
 30
0.0
 10
36.5637
 20
-20.7989
 30
0.0
 10
-17.7927
 20
-20.7989
 30
0.0
 10
-17.7927
 20
-20.7989
 30
0.0
  0
SPLINE
  5
50
330
1F
100
AcDbEntity
  8
ILUSTRACE
100
AcDbSpline
210
0.0
220
0.0
230
1.0
 70
    24
 71
     3
 72
     8
 73
     4
 74
     0
 42
0.0000000001
 43
0.0000000001
 40
0.0
 40
0.0
 40
0.0
 40
0.0
 40
1.0
 40
1.0
 40
1.0
 40
1.0
 10
36.5637
 20
-12.3959
 30
0.0
 10
36.5637
 20
-12.3959
 30
0.0
 10
-17.7927
 20
-12.3959
 30
0.0
 10
-17.7927
 20
-12.3959
 30
0.0
  0
SPLINE
  5
51
330
1F
100
AcDbEntity
  8
ILUSTRACE
100
AcDbSpline
210
0.0
220
0.0
230
1.0
 70
     8
 71
     3
 72
     8
 73
     4
 74
     0
 42
0.0000000001
 43
0.0000000001
 40
0.0
 40
0.0
 40
0.0
 40
0.0
 40
1.0
 40
1.0
 40
1.0
 40
1.0
 10
53.1071
 20
-20.6598
 30
0.0
 10
52.6894
 20
-20.7337
 30
0.0
 10
52.2843
 20
-20.7863
 30
0.0
 10
51.86
 20
-20.7989
 30
0.0
  0
SPLINE
  5
52
330
1F
100
AcDbEntity
  8
ILUSTRACE
100
AcDbSpline
210
0.0
220
0.0
230
1.0
 70
    24
 71
     3
 72
     8
 73
     4
 74
     0
 42
0.0000000001
 43
0.0000000001
 40
0.0
 40
0.0
 40
0.0
 40
0.0
 40
1.0
 40
1.0
 40
1.0
 40
1.0
 10
51.86
 20
-20.7989
 30
0.0
 10
51.86
 20
-20.7989
 30
0.0
 10
39.9778
 20
-20.7989
 30
0.0
 10
39.9778
 20
-20.7989
 30
0.0
  0
SPLINE
  5
53
330
1F
100
AcDbEntity
  8
ILUSTRACE
100
AcDbSpline
210
0.0
220
0.0
230
1.0
 70
     8
 71
     3
 72
    20
 73
    16
 74
     0
 42
0.0000000001
 43
0.0000000001
 40
0.0
 40
0.0
 40
0.0
 40
0.0
 40
0.2
 40
0.2
 40
0.2
 40
0.2
 40
0.4
 40
0.4
 40
0.4
 40
0.4
 40
0.6
 40
0.6
 40
0.6
 40
0.6
 40
1.0
 40
1.0
 40
1.0
 40
1.0
 10
39.9778
 20
-12.3959
 30
0.0
 10
39.9778
 20
-12.3959
 30
0.0
 10
40.5029
 20
-12.3959
 30
0.0
 10
40.5029
 20
-12.3959
 30
0.0
 10
40.5029
 20
-12.3959
 30
0.0
 10
40.5029
 20
-12.3959
 30
0.0
 10
51.3346
 20
-12.3959
 30
0.0
 10
51.3346
 20
-12.3959
 30
0.0
 10
51.3346
 20
-12.3959
 30
0.0
 10
51.3346
 20
-12.3959
 30
0.0
 10
51.86
 20
-12.3959
 30
0.0
 10
51.86
 20
-12.3959
 30
0.0
 10
51.86
 20
-12.3959
 30
0.0
 10
51.86
 20
-12.3959
 30
0.0
 10
52.1654
 20
-12.4049
 30
0.0
 10
52.1654
 20
-12.4049
 30
0.0
  0
SPLINE
  5
54
330
1F
100
AcDbEntity
  8
ILUSTRACE
100
AcDbSpline
210
0.0
220
0.0
230
1.0
 70
     8
 71
     3
 72
     8
 73
     4
 74
     0
 42
0.0000000001
 43
0.0000000001
 40
0.0
 40
0.0
 40
0.0
 40
0.0
 40
1.0
 40
1.0
 40
1.0
 40
1.0
 10
52.1654
 20
-12.4049
 30
0.0
 10
52.4837
 20
-12.4231
 30
0.0
 10
52.794
 20
-12.4795
 30
0.0
 10
53.1071
 20
-12.5346
 30
0.0
  0
SPLINE
  5
55
330
1F
100
AcDbEntity
  8
ILUSTRACE
100
AcDbSpline
210
0.0
220
0.0
230
1.0
 70
    24
 71
     3
 72
     8
 73
     4
 74
     0
 42
0.0000000001
 43
0.0000000001
 40
0.0
 40
0.0
 40
0.0
 40
0.0
 40
1.0
 40
1.0
 40
1.0
 40
1.0
 10
-27.092
 20
-21.6865
 30
0.0
 10
-27.092
 20
-21.6865
 30
0.0
 10
-27.1426
 20
-21.7104
 30
0.0
 10
-27.1426
 20
-21.7104
 30
0.0
  0
SPLINE
  5
56
330
1F
100
AcDbEntity
  8
ILUSTRACE
100
AcDbSpline
210
0.0
220
0.0
230
1.0
 70
    24
 71
     3
 72
     8
 73
     4
 74
     0
 42
0.0000000001
 43
0.0000000001
 40
0.0
 40
0.0
 40
0.0
 40
0.0
 40
1.0
 40
1.0
 40
1.0
 40
1.0
 10
-27.0369
 20
-21.6667
 30
0.0
 10
-27.0369
 20
-21.6667
 30
0.0
 10
-27.0864
 20
-21.6845
 30
0.0
 10
-27.0864
 20
-21.6845
 30
0.0
  0
SPLINE
  5
57
330
1F
100
AcDbEntity
  8
ILUSTRACE
100
AcDbSpline
210
0.0
220
0.0
230
1.0
 70
    24
 71
     3
 72
     8
 73
     4
 74
     0
 42
0.0000000001
 43
0.0000000001
 40
0.0
 40
0.0
 40
0.0
 40
0.0
 40
1.0
 40
1.0
 40
1.0
 40
1.0
 10
-27.0972
 20
-11.5055
 30
0.0
 10
-27.0972
 20
-11.5055
 30
0.0
 10
-27.1426
 20
-11.484
 30
0.0
 10
-27.1426
 20
-11.484
 30
0.0
  0
SPLINE
  5
58
330
1F
100
AcDbEntity
  8
ILUSTRACE
100
AcDbSpline
210
0.0
220
0.0
230
1.0
 70
    24
 71
     3
 72
     8
 73
     4
 74
     0
 42
0.0000000001
 43
0.0000000001
 40
0.0
 40
0.0
 40
0.0
 40
0.0
 40
1.0
 40
1.0
 40
1.0
 40
1.0
 10
-27.0369
 20
-11.5281
 30
0.0
 10
-27.0369
 20
-11.5281
 30
0.0
 10
-27.092
 20
-11.5083
 30
0.0
 10
-27.092
 20
-11.5083
 30
0.0
  0
SPLINE
  5
59
330
1F
100
AcDbEntity
  8
ILUSTRACE
100
AcDbSpline
210
0.0
220
0.0
230
1.0
 70
    24
 71
     3
 72
     8
 73
     4
 74
     0
 42
0.0000000001
 43
0.0000000001
 40
0.0
 40
0.0
 40
0.0
 40
0.0
 40
1.0
 40
1.0
 40
1.0
 40
1.0
 10
-27.8027
 20
-10.7975
 30
0.0
 10
-27.8027
 20
-10.7975
 30
0.0
 10
-27.7779
 20
-10.8496
 30
0.0
 10
-27.7779
 20
-10.8496
 30
0.0
  0
SPLINE
  5
5A
330
1F
100
AcDbEntity
  8
ILUSTRACE
100
AcDbSpline
210
0.0
220
0.0
230
1.0
 70
    24
 71
     3
 72
     8
 73
     4
 74
     0
 42
0.0000000001
 43
0.0000000001
 40
0.0
 40
0.0
 40
0.0
 40
0.0
 40
1.0
 40
1.0
 40
1.0
 40
1.0
 10
-39.1939
 20
-3.9928
 30
0.0
 10
-39.1939
 20
-3.9928
 30
0.0
 10
-27.9027
 20
-3.9928
 30
0.0
 10
-27.9027
 20
-3.9928
 30
0.0
  0
SPLINE
  5
5B
330
1F
100
AcDbEntity
  8
ILUSTRACE
100
AcDbSpline
210
0.0
220
0.0
230
1.0
 70
    24
 71
     3
 72
     8
 73
     4
 74
     0
 42
0.0000000001
 43
0.0000000001
 40
0.0
 40
0.0
 40
0.0
 40
0.0
 40
1.0
 40
1.0
 40
1.0
 40
1.0
 10
-39.1939
 20
-40.2308
 30
0.0
 10
-39.1939
 20
-40.2308
 30
0.0
 10
-39.1939
 20
-3.9928
 30
0.0
 10
-39.1939
 20
-3.9928
 30
0.0
  0
SPLINE
  5
5C
330
1F
100
AcDbEntity
  8
ILUSTRACE
100
AcDbSpline
210
0.0
220
0.0
230
1.0
 70
    24
 71
     3
 72
     8
 73
     4
 74
     0
 42
0.0000000001
 43
0.0000000001
 40
0.0
 40
0.0
 40
0.0
 40
0.0
 40
1.0
 40
1.0
 40
1.0
 40
1.0
 10
-39.1939
 20
-40.2308
 30
0.0
 10
-39.1939
 20
-40.2308
 30
0.0
 10
-27.9027
 20
-40.2308
 30
0.0
 10
-27.9027
 20
-40.2308
 30
0.0
  0
SPLINE
  5
5D
330
1F
100
AcDbEntity
  8
ILUSTRACE
100
AcDbSpline
210
0.0
220
0.0
230
1.0
 70
    24
 71
     3
 72
     8
 73
     4
 74
     0
 42
0.0000000001
 43
0.0000000001
 40
0.0
 40
0.0
 40
0.0
 40
0.0
 40
1.0
 40
1.0
 40
1.0
 40
1.0
 10
-17.7927
 20
-21.5865
 30
0.0
 10
-17.7927
 20
-21.5865
 30
0.0
 10
-17.7927
 20
-11.6082
 30
0.0
 10
-17.7927
 20
-11.6082
 30
0.0
  0
SPLINE
  5
5E
330
1F
100
AcDbEntity
  8
ILUSTRACE
100
AcDbSpline
210
0.0
220
0.0
230
1.0
 70
    24
 71
     3
 72
     8
 73
     4
 74
     0
 42
0.0000000001
 43
0.0000000001
 40
0.0
 40
0.0
 40
0.0
 40
0.0
 40
1.0
 40
1.0
 40
1.0
 40
1.0
 10
-29.8237
 20
-20.1144
 30
0.0
 10
-29.8237
 20
-20.1144
 30
0.0
 10
-29.8997
 20
-19.991
 30
0.0
 10
-29.8997
 20
-19.991
 30
0.0
  0
SPLINE
  5
5F
330
1F
100
AcDbEntity
  8
ILUSTRACE
100
AcDbSpline
210
0.0
220
0.0
230
1.0
 70
    24
 71
     3
 72
     8
 73
     4
 74
     0
 42
0.0000000001
 43
0.0000000001
 40
0.0
 40
0.0
 40
0.0
 40
0.0
 40
1.0
 40
1.0
 40
1.0
 40
1.0
 10
-29.8237
 20
-20.1144
 30
0.0
 10
-29.8237
 20
-20.1144
 30
0.0
 10
-29.8997
 20
-19.991
 30
0.0
 10
-29.8997
 20
-19.991
 30
0.0
  0
SPLINE
  5
60
330
1F
100
AcDbEntity
  8
ILUSTRACE
100
AcDbSpline
210
0.0
220
0.0
230
1.0
 70
     8
 71
     3
 72
    16
 73
    12
 74
     0
 42
0.0000000001
 43
0.0000000001
 40
0.0
 40
0.0
 40
0.0
 40
0.0
 40
0.25
 40
0.25
 40
0.25
 40
0.25
 40
0.5
 40
0.5
 40
0.5
 40
0.5
 40
1.0
 40
1.0
 40
1.0
 40
1.0
 10
-27.9027
 20
-10.2953
 30
0.0
 10
-28.745
 20
-11.4392
 30
0.0
 10
-29.5866
 20
-12.6001
 30
0.0
 10
-30.2751
 20
-13.8454
 30
0.0
 10
-30.2751
 20
-13.8454
 30
0.0
 10
-30.812
 20
-14.8175
 30
0.0
 10
-31.2603
 20
-15.8884
 30
0.0
 10
-31.1301
 20
-17.021
 30
0.0
 10
-31.1301
 20
-17.021
 30
0.0
 10
-31.0064
 20
-18.0933
 30
0.0
 10
-30.4557
 20
-19.0864
 30
0.0
 10
-29.8997
 20
-19.991
 30
0.0
  0
SPLINE
  5
61
330
1F
100
AcDbEntity
  8
ILUSTRACE
100
AcDbSpline
210
0.0
220
0.0
230
1.0
 70
     8
 71
     3
 72
     8
 73
     4
 74
     0
 42
0.0000000001
 43
0.0000000001
 40
0.0
 40
0.0
 40
0.0
 40
0.0
 40
1.0
 40
1.0
 40
1.0
 40
1.0
 10
-29.8237
 20
-20.1144
 30
0.0
 10
-29.2228
 20
-21.0697
 30
0.0
 10
-28.5713
 20
-21.9911
 30
0.0
 10
-27.9027
 20
-22.8995
 30
0.0
  0
SPLINE
  5
62
330
1F
100
AcDbEntity
  8
ILUSTRACE
100
AcDbSpline
210
0.0
220
0.0
230
1.0
 70
     8
 71
     3
 72
     8
 73
     4
 74
     0
 42
0.0000000001
 43
0.0000000001
 40
0.0
 40
0.0
 40
0.0
 40
0.0
 40
1.0
 40
1.0
 40
1.0
 40
1.0
 10
-27.8567
 20
-22.5597
 30
0.0
 10
-27.838
 20
-22.4853
 30
0.0
 10
-27.8107
 20
-22.4143
 30
0.0
 10
-27.7779
 20
-22.3449
 30
0.0
  0
SPLINE
  5
63
330
1F
100
AcDbEntity
  8
ILUSTRACE
100
AcDbSpline
210
0.0
220
0.0
230
1.0
 70
     8
 71
     3
 72
    12
 73
     8
 74
     0
 42
0.0000000001
 43
0.0000000001
 40
0.0
 40
0.0
 40
0.0
 40
0.0
 40
0.3333333333333333
 40
0.3333333333333333
 40
0.3333333333333333
 40
0.3333333333333333
 40
1.0
 40
1.0
 40
1.0
 40
1.0
 10
-27.8567
 20
-10.6348
 30
0.0
 10
-27.8567
 20
-10.6348
 30
0.0
 10
-27.8459
 20
-10.6761
 30
0.0
 10
-27.8459
 20
-10.6761
 30
0.0
 10
-27.8459
 20
-10.6761
 30
0.0
 10
-27.8459
 20
-10.6761
 30
0.0
 10
-27.8052
 20
-10.7906
 30
0.0
 10
-27.8052
 20
-10.7906
 30
0.0
  0
SPLINE
  5
64
330
1F
100
AcDbEntity
  8
ILUSTRACE
100
AcDbSpline
210
0.0
220
0.0
230
1.0
 70
     8
 71
     3
 72
     8
 73
     4
 74
     0
 42
0.0000000001
 43
0.0000000001
 40
0.0
 40
0.0
 40
0.0
 40
0.0
 40
1.0
 40
1.0
 40
1.0
 40
1.0
 10
-27.8847
 20
-10.5249
 30
0.0
 10
-27.9115
 20
-10.2704
 30
0.0
 10
-27.9027
 20
-10.0328
 30
0.0
 10
-27.9027
 20
-9.7699
 30
0.0
  0
SPLINE
  5
65
330
1F
100
AcDbEntity
  8
ILUSTRACE
100
AcDbSpline
210
0.0
220
0.0
230
1.0
 70
    24
 71
     3
 72
    12
 73
     8
 74
     0
 42
0.0000000001
 43
0.0000000001
 40
0.0
 40
0.0
 40
0.0
 40
0.0
 40
0.3333333333333333
 40
0.3333333333333333
 40
0.3333333333333333
 40
0.3333333333333333
 40
1.0
 40
1.0
 40
1.0
 40
1.0
 10
-27.9027
 20
-9.7699
 30
0.0
 10
-27.9027
 20
-9.7699
 30
0.0
 10
-27.9027
 20
-4.5182
 30
0.0
 10
-27.9027
 20
-4.5182
 30
0.0
 10
-27.9027
 20
-4.5182
 30
0.0
 10
-27.9027
 20
-4.5182
 30
0.0
 10
-27.9027
 20
-3.9928
 30
0.0
 10
-27.9027
 20
-3.9928
 30
0.0
  0
SPLINE
  5
66
330
1F
100
AcDbEntity
  8
ILUSTRACE
100
AcDbSpline
210
0.0
220
0.0
230
1.0
 70
     8
 71
     3
 72
     8
 73
     4
 74
     0
 42
0.0000000001
 43
0.0000000001
 40
0.0
 40
0.0
 40
0.0
 40
0.0
 40
1.0
 40
1.0
 40
1.0
 40
1.0
 10
-27.8847
 20
-22.6696
 30
0.0
 10
-27.9115
 20
-22.9246
 30
0.0
 10
-27.9027
 20
-23.1622
 30
0.0
 10
-27.9027
 20
-23.4249
 30
0.0
  0
SPLINE
  5
67
330
1F
100
AcDbEntity
  8
ILUSTRACE
100
AcDbSpline
210
0.0
220
0.0
230
1.0
 70
    24
 71
     3
 72
    12
 73
     8
 74
     0
 42
0.0000000001
 43
0.0000000001
 40
0.0
 40
0.0
 40
0.0
 40
0.0
 40
0.3333333333333333
 40
0.3333333333333333
 40
0.3333333333333333
 40
0.3333333333333333
 40
1.0
 40
1.0
 40
1.0
 40
1.0
 10
-27.9027
 20
-23.4249
 30
0.0
 10
-27.9027
 20
-23.4249
 30
0.0
 10
-27.9027
 20
-39.7054
 30
0.0
 10
-27.9027
 20
-39.7054
 30
0.0
 10
-27.9027
 20
-39.7054
 30
0.0
 10
-27.9027
 20
-39.7054
 30
0.0
 10
-27.9027
 20
-40.2308
 30
0.0
 10
-27.9027
 20
-40.2308
 30
0.0
  0
SPLINE
  5
68
330
1F
100
AcDbEntity
  8
ILUSTRACE
100
AcDbSpline
210
0.0
220
0.0
230
1.0
 70
    24
 71
     3
 72
     8
 73
     4
 74
     0
 42
0.0000000001
 43
0.0000000001
 40
0.0
 40
0.0
 40
0.0
 40
0.0
 40
1.0
 40
1.0
 40
1.0
 40
1.0
 10
-27.7289
 20
-22.2405
 30
0.0
 10
-27.7289
 20
-22.2405
 30
0.0
 10
-27.6044
 20
-22.0665
 30
0.0
 10
-27.6044
 20
-22.0665
 30
0.0
  0
SPLINE
  5
69
330
1F
100
AcDbEntity
  8
ILUSTRACE
100
AcDbSpline
210
0.0
220
0.0
230
1.0
 70
     8
 71
     3
 72
     8
 73
     4
 74
     0
 42
0.0000000001
 43
0.0000000001
 40
0.0
 40
0.0
 40
0.0
 40
0.0
 40
1.0
 40
1.0
 40
1.0
 40
1.0
 10
-26.8185
 20
-21.6041
 30
0.0
 10
-26.5644
 20
-21.578
 30
0.0
 10
-26.3272
 20
-21.5865
 30
0.0
 10
-26.0642
 20
-21.5865
 30
0.0
  0
SPLINE
  5
6A
330
1F
100
AcDbEntity
  8
ILUSTRACE
100
AcDbSpline
210
0.0
220
0.0
230
1.0
 70
    24
 71
     3
 72
    12
 73
     8
 74
     0
 42
0.0000000001
 43
0.0000000001
 40
0.0
 40
0.0
 40
0.0
 40
0.0
 40
0.3333333333333333
 40
0.3333333333333333
 40
0.3333333333333333
 40
0.3333333333333333
 40
1.0
 40
1.0
 40
1.0
 40
1.0
 10
-26.0642
 20
-21.5865
 30
0.0
 10
-26.0642
 20
-21.5865
 30
0.0
 10
-18.3179
 20
-21.5865
 30
0.0
 10
-18.3179
 20
-21.5865
 30
0.0
 10
-18.3179
 20
-21.5865
 30
0.0
 10
-18.3179
 20
-21.5865
 30
0.0
 10
-17.7927
 20
-21.5865
 30
0.0
 10
-17.7927
 20
-21.5865
 30
0.0
  0
SPLINE
  5
6B
330
1F
100
AcDbEntity
  8
ILUSTRACE
100
AcDbSpline
210
0.0
220
0.0
230
1.0
 70
     8
 71
     3
 72
     8
 73
     4
 74
     0
 42
0.0000000001
 43
0.0000000001
 40
0.0
 40
0.0
 40
0.0
 40
0.0
 40
1.0
 40
1.0
 40
1.0
 40
1.0
 10
-26.8185
 20
-11.5906
 30
0.0
 10
-26.5644
 20
-11.6165
 30
0.0
 10
-26.3272
 20
-11.6082
 30
0.0
 10
-26.0642
 20
-11.6082
 30
0.0
  0
SPLINE
  5
6C
330
1F
100
AcDbEntity
  8
ILUSTRACE
100
AcDbSpline
210
0.0
220
0.0
230
1.0
 70
    24
 71
     3
 72
    12
 73
     8
 74
     0
 42
0.0000000001
 43
0.0000000001
 40
0.0
 40
0.0
 40
0.0
 40
0.0
 40
0.3333333333333333
 40
0.3333333333333333
 40
0.3333333333333333
 40
0.3333333333333333
 40
1.0
 40
1.0
 40
1.0
 40
1.0
 10
-26.0642
 20
-11.6082
 30
0.0
 10
-26.0642
 20
-11.6082
 30
0.0
 10
-18.3179
 20
-11.6082
 30
0.0
 10
-18.3179
 20
-11.6082
 30
0.0
 10
-18.3179
 20
-11.6082
 30
0.0
 10
-18.3179
 20
-11.6082
 30
0.0
 10
-17.7927
 20
-11.6082
 30
0.0
 10
-17.7927
 20
-11.6082
 30
0.0
  0
SPLINE
  5
6D
330
1F
100
AcDbEntity
  8
ILUSTRACE
100
AcDbSpline
210
0.0
220
0.0
230
1.0
 70
     8
 71
     3
 72
     8
 73
     4
 74
     0
 42
0.0000000001
 43
0.0000000001
 40
0.0
 40
0.0
 40
0.0
 40
0.0
 40
1.0
 40
1.0
 40
1.0
 40
1.0
 10
-27.597
 20
-11.1412
 30
0.0
 10
-27.5166
 20
-11.225
 30
0.0
 10
-27.4339
 20
-11.2998
 30
0.0
 10
-27.3445
 20
-11.3731
 30
0.0
  0
SPLINE
  5
6E
330
1F
100
AcDbEntity
  8
ILUSTRACE
100
AcDbSpline
210
0.0
220
0.0
230
1.0
 70
    24
 71
     3
 72
     8
 73
     4
 74
     0
 42
0.0000000001
 43
0.0000000001
 40
0.0
 40
0.0
 40
0.0
 40
0.0
 40
1.0
 40
1.0
 40
1.0
 40
1.0
 10
-26.7183
 20
-11.6019
 30
0.0
 10
-26.7183
 20
-11.6019
 30
0.0
 10
-26.9306
 20
-11.5658
 30
0.0
 10
-26.9306
 20
-11.5658
 30
0.0
  0
SPLINE
  5
6F
330
1F
100
AcDbEntity
  8
ILUSTRACE
100
AcDbSpline
210
0.0
220
0.0
230
1.0
 70
    24
 71
     3
 72
     8
 73
     4
 74
     0
 42
0.0000000001
 43
0.0000000001
 40
0.0
 40
0.0
 40
0.0
 40
0.0
 40
1.0
 40
1.0
 40
1.0
 40
1.0
 10
-27.5191
 20
-11.2219
 30
0.0
 10
-27.5191
 20
-11.2219
 30
0.0
 10
-27.6673
 20
-11.0507
 30
0.0
 10
-27.6673
 20
-11.0507
 30
0.0
  0
SPLINE
  5
70
330
1F
100
AcDbEntity
  8
ILUSTRACE
100
AcDbSpline
210
0.0
220
0.0
230
1.0
 70
    24
 71
     3
 72
     8
 73
     4
 74
     0
 42
0.0000000001
 43
0.0000000001
 40
0.0
 40
0.0
 40
0.0
 40
0.0
 40
1.0
 40
1.0
 40
1.0
 40
1.0
 10
-27.7289
 20
-10.9539
 30
0.0
 10
-27.7289
 20
-10.9539
 30
0.0
 10
-27.6044
 20
-11.1282
 30
0.0
 10
-27.6044
 20
-11.1282
 30
0.0
  0
SPLINE
  5
71
330
1F
100
AcDbEntity
  8
ILUSTRACE
100
AcDbSpline
210
0.0
220
0.0
230
1.0
 70
     8
 71
     3
 72
     8
 73
     4
 74
     0
 42
0.0000000001
 43
0.0000000001
 40
0.0
 40
0.0
 40
0.0
 40
0.0
 40
1.0
 40
1.0
 40
1.0
 40
1.0
 10
-27.2084
 20
-11.453
 30
0.0
 10
-27.0862
 20
-11.5107
 30
0.0
 10
-26.9771
 20
-11.5498
 30
0.0
 10
-26.8455
 20
-11.5826
 30
0.0
  0
SPLINE
  5
72
330
1F
100
AcDbEntity
  8
ILUSTRACE
100
AcDbSpline
210
0.0
220
0.0
230
1.0
 70
     8
 71
     3
 72
     8
 73
     4
 74
     0
 42
0.0000000001
 43
0.0000000001
 40
0.0
 40
0.0
 40
0.0
 40
0.0
 40
1.0
 40
1.0
 40
1.0
 40
1.0
 10
-26.9708
 20
-11.5516
 30
0.0
 10
-27.0977
 20
-11.5152
 30
0.0
 10
-27.2059
 20
-11.4546
 30
0.0
 10
-27.3191
 20
-11.3869
 30
0.0
  0
SPLINE
  5
73
330
1F
100
AcDbEntity
  8
ILUSTRACE
100
AcDbSpline
210
0.0
220
0.0
230
1.0
 70
    24
 71
     3
 72
     8
 73
     4
 74
     0
 42
0.0000000001
 43
0.0000000001
 40
0.0
 40
0.0
 40
0.0
 40
0.0
 40
1.0
 40
1.0
 40
1.0
 40
1.0
 10
-27.2478
 20
-11.4348
 30
0.0
 10
-27.2478
 20
-11.4348
 30
0.0
 10
-27.4224
 20
-11.3103
 30
0.0
 10
-27.4224
 20
-11.3103
 30
0.0
  0
SPLINE
  5
74
330
1F
100
AcDbEntity
  8
ILUSTRACE
100
AcDbSpline
210
0.0
220
0.0
230
1.0
 70
     8
 71
     3
 72
     8
 73
     4
 74
     0
 42
0.0000000001
 43
0.0000000001
 40
0.0
 40
0.0
 40
0.0
 40
0.0
 40
1.0
 40
1.0
 40
1.0
 40
1.0
 10
-27.8773
 20
-10.5514
 30
0.0
 10
-27.833
 20
-10.7284
 30
0.0
 10
-27.7755
 20
-10.8678
 30
0.0
 10
-27.6812
 20
-11.0247
 30
0.0
  0
SPLINE
  5
75
330
1F
100
AcDbEntity
  8
ILUSTRACE
100
AcDbSpline
210
0.0
220
0.0
230
1.0
 70
     8
 71
     3
 72
     8
 73
     4
 74
     0
 42
0.0000000001
 43
0.0000000001
 40
0.0
 40
0.0
 40
0.0
 40
0.0
 40
1.0
 40
1.0
 40
1.0
 40
1.0
 10
-27.8961
 20
-10.4236
 30
0.0
 10
-27.8696
 20
-10.6048
 30
0.0
 10
-27.8256
 20
-10.7491
 30
0.0
 10
-27.7477
 20
-10.914
 30
0.0
  0
SPLINE
  5
76
330
1F
100
AcDbEntity
  8
ILUSTRACE
100
AcDbSpline
210
0.0
220
0.0
230
1.0
 70
    24
 71
     3
 72
     8
 73
     4
 74
     0
 42
0.0000000001
 43
0.0000000001
 40
0.0
 40
0.0
 40
0.0
 40
0.0
 40
1.0
 40
1.0
 40
1.0
 40
1.0
 10
-27.4224
 20
-21.8844
 30
0.0
 10
-27.4224
 20
-21.8844
 30
0.0
 10
-27.2478
 20
-21.7597
 30
0.0
 10
-27.2478
 20
-21.7597
 30
0.0
  0
SPLINE
  5
77
330
1F
100
AcDbEntity
  8
ILUSTRACE
100
AcDbSpline
210
0.0
220
0.0
230
1.0
 70
     8
 71
     3
 72
     8
 73
     4
 74
     0
 42
0.0000000001
 43
0.0000000001
 40
0.0
 40
0.0
 40
0.0
 40
0.0
 40
1.0
 40
1.0
 40
1.0
 40
1.0
 10
-27.3191
 20
-21.8076
 30
0.0
 10
-27.2059
 20
-21.7402
 30
0.0
 10
-27.0977
 20
-21.6796
 30
0.0
 10
-26.9708
 20
-21.6432
 30
0.0
  0
SPLINE
  5
78
330
1F
100
AcDbEntity
  8
ILUSTRACE
100
AcDbSpline
210
0.0
220
0.0
230
1.0
 70
     8
 71
     3
 72
     8
 73
     4
 74
     0
 42
0.0000000001
 43
0.0000000001
 40
0.0
 40
0.0
 40
0.0
 40
0.0
 40
1.0
 40
1.0
 40
1.0
 40
1.0
 10
-27.597
 20
-22.053
 30
0.0
 10
-27.5166
 20
-21.9698
 30
0.0
 10
-27.4339
 20
-21.8952
 30
0.0
 10
-27.3445
 20
-21.8217
 30
0.0
  0
SPLINE
  5
79
330
1F
100
AcDbEntity
  8
ILUSTRACE
100
AcDbSpline
210
0.0
220
0.0
230
1.0
 70
     8
 71
     3
 72
     8
 73
     4
 74
     0
 42
0.0000000001
 43
0.0000000001
 40
0.0
 40
0.0
 40
0.0
 40
0.0
 40
1.0
 40
1.0
 40
1.0
 40
1.0
 10
-27.8773
 20
-22.6434
 30
0.0
 10
-27.8509
 20
-22.5124
 30
0.0
 10
-27.8049
 20
-22.4019
 30
0.0
 10
-27.7477
 20
-22.2807
 30
0.0
  0
SPLINE
  5
7A
330
1F
100
AcDbEntity
  8
ILUSTRACE
100
AcDbSpline
210
0.0
220
0.0
230
1.0
 70
     8
 71
     3
 72
     8
 73
     4
 74
     0
 42
0.0000000001
 43
0.0000000001
 40
0.0
 40
0.0
 40
0.0
 40
0.0
 40
1.0
 40
1.0
 40
1.0
 40
1.0
 10
-27.2084
 20
-21.7418
 30
0.0
 10
-27.0887
 20
-21.6848
 30
0.0
 10
-26.975
 20
-21.6443
 30
0.0
 10
-26.8455
 20
-21.6121
 30
0.0
  0
SPLINE
  5
7B
330
1F
100
AcDbEntity
  8
ILUSTRACE
100
AcDbSpline
210
0.0
220
0.0
230
1.0
 70
    24
 71
     3
 72
     8
 73
     4
 74
     0
 42
0.0000000001
 43
0.0000000001
 40
0.0
 40
0.0
 40
0.0
 40
0.0
 40
1.0
 40
1.0
 40
1.0
 40
1.0
 10
-26.7183
 20
-21.5928
 30
0.0
 10
-26.7183
 20
-21.5928
 30
0.0
 10
-26.9306
 20
-21.6286
 30
0.0
 10
-26.9306
 20
-21.6286
 30
0.0
  0
SPLINE
  5
7C
330
1F
100
AcDbEntity
  8
ILUSTRACE
100
AcDbSpline
210
0.0
220
0.0
230
1.0
 70
    24
 71
     3
 72
     8
 73
     4
 74
     0
 42
0.0000000001
 43
0.0000000001
 40
0.0
 40
0.0
 40
0.0
 40
0.0
 40
1.0
 40
1.0
 40
1.0
 40
1.0
 10
-27.6673
 20
-22.1438
 30
0.0
 10
-27.6673
 20
-22.1438
 30
0.0
 10
-27.5191
 20
-21.9726
 30
0.0
 10
-27.5191
 20
-21.9726
 30
0.0
  0
SPLINE
  5
7D
330
1F
100
AcDbEntity
  8
ILUSTRACE
100
AcDbSpline
210
0.0
220
0.0
230
1.0
 70
     8
 71
     3
 72
     8
 73
     4
 74
     0
 42
0.0000000001
 43
0.0000000001
 40
0.0
 40
0.0
 40
0.0
 40
0.0
 40
1.0
 40
1.0
 40
1.0
 40
1.0
 10
-27.6812
 20
-22.1701
 30
0.0
 10
-27.7372
 20
-22.2628
 30
0.0
 10
-27.784
 20
-22.3487
 30
0.0
 10
-27.8217
 20
-22.4509
 30
0.0
  0
SPLINE
  5
7E
330
1F
100
AcDbEntity
  8
ILUSTRACE
100
AcDbSpline
210
0.0
220
0.0
230
1.0
 70
    24
 71
     3
 72
     8
 73
     4
 74
     0
 42
0.0000000001
 43
0.0000000001
 40
0.0
 40
0.0
 40
0.0
 40
0.0
 40
1.0
 40
1.0
 40
1.0
 40
1.0
 10
-27.8961
 20
-22.7712
 30
0.0
 10
-27.8961
 20
-22.7712
 30
0.0
 10
-27.86
 20
-22.5578
 30
0.0
 10
-27.86
 20
-22.5578
 30
0.0
  0
SPLINE
  5
7F
330
1F
100
AcDbEntity
  8
ILUSTRACE
 62
   250
100
AcDbSpline
210
0.0
220
0.0
230
1.0
 70
    11
 71
     3
 72
    84
 73
    80
 74
     0
 42
0.0000000001
 43
0.0000000001
 40
0.0
 40
0.0
 40
0.0
 40
0.0
 40
0.0476190476190476
 40
0.0476190476190476
 40
0.0476190476190476
 40
0.0476190476190476
 40
0.0952380952380952
 40
0.0952380952380952
 40
0.0952380952380952
 40
0.0952380952380952
 40
0.1428571428571428
 40
0.1428571428571428
 40
0.1428571428571428
 40
0.1428571428571428
 40
0.1904761904761905
 40
0.1904761904761905
 40
0.1904761904761905
 40
0.1904761904761905
 40
0.2380952380952381
 40
0.2380952380952381
 40
0.2380952380952381
 40
0.2380952380952381
 40
0.2857142857142857
 40
0.2857142857142857
 40
0.2857142857142857
 40
0.2857142857142857
 40
0.3333333333333333
 40
0.3333333333333333
 40
0.3333333333333333
 40
0.3333333333333333
 40
0.3809523809523809
 40
0.3809523809523809
 40
0.3809523809523809
 40
0.3809523809523809
 40
0.4285714285714285
 40
0.4285714285714285
 40
0.4285714285714285
 40
0.4285714285714285
 40
0.4761904761904762
 40
0.4761904761904762
 40
0.4761904761904762
 40
0.4761904761904762
 40
0.5238095238095238
 40
0.5238095238095238
 40
0.5238095238095238
 40
0.5238095238095238
 40
0.5714285714285714
 40
0.5714285714285714
 40
0.5714285714285714
 40
0.5714285714285714
 40
0.6190476190476191
 40
0.6190476190476191
 40
0.6190476190476191
 40
0.6190476190476191
 40
0.6666666666666666
 40
0.6666666666666666
 40
0.6666666666666666
 40
0.6666666666666666
 40
0.7142857142857143
 40
0.7142857142857143
 40
0.7142857142857143
 40
0.7142857142857143
 40
0.7619047619047619
 40
0.7619047619047619
 40
0.7619047619047619
 40
0.7619047619047619
 40
0.8095238095238095
 40
0.8095238095238095
 40
0.8095238095238095
 40
0.8095238095238095
 40
0.8571428571428571
 40
0.8571428571428571
 40
0.8571428571428571
 40
0.8571428571428571
 40
0.9047619047619048
 40
0.9047619047619048
 40
0.9047619047619048
 40
0.9047619047619048
 40
1.0
 40
1.0
 40
1.0
 40
1.0
 10
43.1541
 20
-17.4066
 30
0.0
 10
43.1541
 20
-17.4066
 30
0.0
 10
42.895
 20
-17.1752
 30
0.0
 10
42.895
 20
-17.1752
 30
0.0
 10
42.895
 20
-17.1752
 30
0.0
 10
42.895
 20
-17.1752
 30
0.0
 10
43.0107
 20
-17.0388
 30
0.0
 10
43.0107
 20
-17.0388
 30
0.0
 10
43.0107
 20
-17.0388
 30
0.0
 10
43.0107
 20
-17.0388
 30
0.0
 10
43.2835
 20
-17.281
 30
0.0
 10
43.2835
 20
-17.281
 30
0.0
 10
43.2835
 20
-17.281
 30
0.0
 10
43.4011
 20
-17.202
 30
0.0
 10
43.5041
 20
-17.1489
 30
0.0
 10
43.592
 20
-17.1211
 30
0.0
 10
43.592
 20
-17.1211
 30
0.0
 10
43.7078
 20
-17.0844
 30
0.0
 10
43.8376
 20
-17.0661
 30
0.0
 10
43.9806
 20
-17.0661
 30
0.0
 10
43.9806
 20
-17.0661
 30
0.0
 10
44.1875
 20
-17.0661
 30
0.0
 10
44.3719
 20
-17.1079
 30
0.0
 10
44.5332
 20
-17.1917
 30
0.0
 10
44.5332
 20
-17.1917
 30
0.0
 10
44.6951
 20
-17.2754
 30
0.0
 10
44.8173
 20
-17.3925
 30
0.0
 10
44.9001
 20
-17.5435
 30
0.0
 10
44.9001
 20
-17.5435
 30
0.0
 10
44.9824
 20
-17.695
 30
0.0
 10
45.0238
 20
-17.8553
 30
0.0
 10
45.0238
 20
-18.0251
 30
0.0
 10
45.0238
 20
-18.0251
 30
0.0
 10
45.0238
 20
-18.1521
 30
0.0
 10
45.006
 20
-18.2669
 30
0.0
 10
44.9702
 20
-18.3699
 30
0.0
 10
44.9702
 20
-18.3699
 30
0.0
 10
44.9425
 20
-18.4489
 30
0.0
 10
44.8898
 20
-18.5411
 30
0.0
 10
44.8117
 20
-18.647
 30
0.0
 10
44.8117
 20
-18.647
 30
0.0
 10
44.8117
 20
-18.647
 30
0.0
 10
45.0709
 20
-18.8784
 30
0.0
 10
45.0709
 20
-18.8784
 30
0.0
 10
45.0709
 20
-18.8784
 30
0.0
 10
45.0709
 20
-18.8784
 30
0.0
 10
44.9552
 20
-19.0148
 30
0.0
 10
44.9552
 20
-19.0148
 30
0.0
 10
44.9552
 20
-19.0148
 30
0.0
 10
44.9552
 20
-19.0148
 30
0.0
 10
44.6838
 20
-18.7721
 30
0.0
 10
44.6838
 20
-18.7721
 30
0.0
 10
44.6838
 20
-18.7721
 30
0.0
 10
44.5469
 20
-18.8624
 30
0.0
 10
44.4298
 20
-18.9226
 30
0.0
 10
44.3329
 20
-18.9527
 30
0.0
 10
44.3329
 20
-18.9527
 30
0.0
 10
44.236
 20
-18.9828
 30
0.0
 10
44.1193
 20
-18.9983
 30
0.0
 10
43.9834
 20
-18.9983
 30
0.0
 10
43.9834
 20
-18.9983
 30
0.0
 10
43.776
 20
-18.9983
 30
0.0
 10
43.5911
 20
-18.9569
 30
0.0
 10
43.4288
 20
-18.8742
 30
0.0
 10
43.4288
 20
-18.8742
 30
0.0
 10
43.2665
 20
-18.7914
 30
0.0
 10
43.1438
 20
-18.6757
 30
0.0
 10
43.0601
 20
-18.5261
 30
0.0
 10
43.0601
 20
-18.5261
 30
0.0
 10
42.9768
 20
-18.377
 30
0.0
 10
42.9349
 20
-18.2109
 30
0.0
 10
42.9349
 20
-18.028
 30
0.0
 10
42.9349
 20
-18.028
 30
0.0
 10
42.9349
 20
-17.9047
 30
0.0
 10
42.9509
 20
-17.797
 30
0.0
 10
42.9839
 20
-17.7048
 30
0.0
 10
42.9839
 20
-17.7048
 30
0.0
 10
43.0163
 20
-17.6126
 30
0.0
 10
43.0732
 20
-17.5129
 30
0.0
 10
43.1541
 20
-17.4066
 30
0.0
  0
SPLINE
  5
80
330
1F
100
AcDbEntity
  8
ILUSTRACE
 62
   250
100
AcDbSpline
210
0.0
220
0.0
230
1.0
 70
    11
 71
     3
 72
    32
 73
    28
 74
     0
 42
0.0000000001
 43
0.0000000001
 40
0.0
 40
0.0
 40
0.0
 40
0.0
 40
0.125
 40
0.125
 40
0.125
 40
0.125
 40
0.25
 40
0.25
 40
0.25
 40
0.25
 40
0.375
 40
0.375
 40
0.375
 40
0.375
 40
0.5
 40
0.5
 40
0.5
 40
0.5
 40
0.625
 40
0.625
 40
0.625
 40
0.625
 40
0.75
 40
0.75
 40
0.75
 40
0.75
 40
1.0
 40
1.0
 40
1.0
 40
1.0
 10
43.3399
 20
-17.5717
 30
0.0
 10
43.2722
 20
-17.6583
 30
0.0
 10
43.2256
 20
-17.734
 30
0.0
 10
43.2007
 20
-17.7984
 30
0.0
 10
43.2007
 20
-17.7984
 30
0.0
 10
43.1762
 20
-17.8633
 30
0.0
 10
43.1635
 20
-17.9395
 30
0.0
 10
43.1635
 20
-18.0266
 30
0.0
 10
43.1635
 20
-18.0266
 30
0.0
 10
43.1635
 20
-18.2279
 30
0.0
 10
43.2317
 20
-18.3939
 30
0.0
 10
43.3681
 20
-18.5256
 30
0.0
 10
43.3681
 20
-18.5256
 30
0.0
 10
43.5046
 20
-18.6569
 30
0.0
 10
43.7082
 20
-18.7227
 30
0.0
 10
43.9796
 20
-18.7227
 30
0.0
 10
43.9796
 20
-18.7227
 30
0.0
 10
44.0859
 20
-18.7227
 30
0.0
 10
44.1805
 20
-18.7124
 30
0.0
 10
44.2633
 20
-18.6921
 30
0.0
 10
44.2633
 20
-18.6921
 30
0.0
 10
44.3249
 20
-18.6775
 30
0.0
 10
44.4006
 20
-18.647
 30
0.0
 10
44.4904
 20
-18.5999
 30
0.0
 10
44.4904
 20
-18.5999
 30
0.0
 10
44.4904
 20
-18.5999
 30
0.0
 10
43.3399
 20
-17.5717
 30
0.0
 10
43.3399
 20
-17.5717
 30
0.0
  0
SPLINE
  5
81
330
1F
100
AcDbEntity
  8
ILUSTRACE
 62
   250
100
AcDbSpline
210
0.0
220
0.0
230
1.0
 70
    11
 71
     3
 72
    28
 73
    24
 74
     0
 42
0.0000000001
 43
0.0000000001
 40
0.0
 40
0.0
 40
0.0
 40
0.0
 40
0.1428571428571428
 40
0.1428571428571428
 40
0.1428571428571428
 40
0.1428571428571428
 40
0.2857142857142857
 40
0.2857142857142857
 40
0.2857142857142857
 40
0.2857142857142857
 40
0.4285714285714285
 40
0.4285714285714285
 40
0.4285714285714285
 40
0.4285714285714285
 40
0.5714285714285714
 40
0.5714285714285714
 40
0.5714285714285714
 40
0.5714285714285714
 40
0.7142857142857143
 40
0.7142857142857143
 40
0.7142857142857143
 40
0.7142857142857143
 40
1.0
 40
1.0
 40
1.0
 40
1.0
 10
43.482
 20
-17.4588
 30
0.0
 10
43.482
 20
-17.4588
 30
0.0
 10
44.6283
 20
-18.4828
 30
0.0
 10
44.6283
 20
-18.4828
 30
0.0
 10
44.6283
 20
-18.4828
 30
0.0
 10
44.6861
 20
-18.4123
 30
0.0
 10
44.7266
 20
-18.3469
 30
0.0
 10
44.7496
 20
-18.2871
 30
0.0
 10
44.7496
 20
-18.2871
 30
0.0
 10
44.7802
 20
-18.2091
 30
0.0
 10
44.7952
 20
-18.1244
 30
0.0
 10
44.7952
 20
-18.0336
 30
0.0
 10
44.7952
 20
-18.0336
 30
0.0
 10
44.7952
 20
-17.8332
 30
0.0
 10
44.7247
 20
-17.6681
 30
0.0
 10
44.5831
 20
-17.5374
 30
0.0
 10
44.5831
 20
-17.5374
 30
0.0
 10
44.4415
 20
-17.4071
 30
0.0
 10
44.243
 20
-17.3417
 30
0.0
 10
43.9876
 20
-17.3417
 30
0.0
 10
43.9876
 20
-17.3417
 30
0.0
 10
43.7967
 20
-17.3417
 30
0.0
 10
43.6278
 20
-17.3807
 30
0.0
 10
43.482
 20
-17.4588
 30
0.0
  0
SPLINE
  5
82
330
1F
100
AcDbEntity
  8
ILUSTRACE
 62
   250
100
AcDbSpline
210
0.0
220
0.0
230
1.0
 70
    11
 71
     3
 72
    48
 73
    44
 74
     0
 42
0.0000000001
 43
0.0000000001
 40
0.0
 40
0.0
 40
0.0
 40
0.0
 40
0.0833333333333333
 40
0.0833333333333333
 40
0.0833333333333333
 40
0.0833333333333333
 40
0.1666666666666667
 40
0.1666666666666667
 40
0.1666666666666667
 40
0.1666666666666667
 40
0.25
 40
0.25
 40
0.25
 40
0.25
 40
0.3333333333333333
 40
0.3333333333333333
 40
0.3333333333333333
 40
0.3333333333333333
 40
0.4166666666666667
 40
0.4166666666666667
 40
0.4166666666666667
 40
0.4166666666666667
 40
0.5
 40
0.5
 40
0.5
 40
0.5
 40
0.5833333333333334
 40
0.5833333333333334
 40
0.5833333333333334
 40
0.5833333333333334
 40
0.6666666666666666
 40
0.6666666666666666
 40
0.6666666666666666
 40
0.6666666666666666
 40
0.75
 40
0.75
 40
0.75
 40
0.75
 40
0.8333333333333334
 40
0.8333333333333334
 40
0.8333333333333334
 40
0.8333333333333334
 40
1.0
 40
1.0
 40
1.0
 40
1.0
 10
43.2341
 20
-16.8003
 30
0.0
 10
43.2341
 20
-16.8003
 30
0.0
 10
42.9956
 20
-16.8003
 30
0.0
 10
42.9956
 20
-16.8003
 30
0.0
 10
42.9956
 20
-16.8003
 30
0.0
 10
42.9956
 20
-16.8003
 30
0.0
 10
42.9956
 20
-15.4927
 30
0.0
 10
42.9956
 20
-15.4927
 30
0.0
 10
42.9956
 20
-15.4927
 30
0.0
 10
42.9956
 20
-15.4927
 30
0.0
 10
43.1885
 20
-15.4927
 30
0.0
 10
43.1885
 20
-15.4927
 30
0.0
 10
43.1885
 20
-15.4927
 30
0.0
 10
43.3253
 20
-15.6211
 30
0.0
 10
43.5074
 20
-15.7486
 30
0.0
 10
43.7341
 20
-15.8751
 30
0.0
 10
43.7341
 20
-15.8751
 30
0.0
 10
43.9608
 20
-16.0012
 30
0.0
 10
44.1946
 20
-16.099
 30
0.0
 10
44.434
 20
-16.1677
 30
0.0
 10
44.434
 20
-16.1677
 30
0.0
 10
44.6033
 20
-16.2175
 30
0.0
 10
44.7882
 20
-16.249
 30
0.0
 10
44.9895
 20
-16.2627
 30
0.0
 10
44.9895
 20
-16.2627
 30
0.0
 10
44.9895
 20
-16.2627
 30
0.0
 10
44.9895
 20
-16.5176
 30
0.0
 10
44.9895
 20
-16.5176
 30
0.0
 10
44.9895
 20
-16.5176
 30
0.0
 10
44.8305
 20
-16.5148
 30
0.0
 10
44.6386
 20
-16.4838
 30
0.0
 10
44.4133
 20
-16.424
 30
0.0
 10
44.4133
 20
-16.424
 30
0.0
 10
44.1885
 20
-16.3643
 30
0.0
 10
43.9712
 20
-16.2787
 30
0.0
 10
43.7623
 20
-16.1672
 30
0.0
 10
43.7623
 20
-16.1672
 30
0.0
 10
43.5535
 20
-16.0553
 30
0.0
 10
43.3771
 20
-15.9367
 30
0.0
 10
43.2341
 20
-15.8107
 30
0.0
 10
43.2341
 20
-15.8107
 30
0.0
 10
43.2341
 20
-15.8107
 30
0.0
 10
43.2341
 20
-16.8003
 30
0.0
 10
43.2341
 20
-16.8003
 30
0.0
  0
SPLINE
  5
83
330
1F
100
AcDbEntity
  8
ILUSTRACE
 62
   250
100
AcDbSpline
210
0.0
220
0.0
230
1.0
 70
    11
 71
     3
 72
    52
 73
    48
 74
     0
 42
0.0000000001
 43
0.0000000001
 40
0.0
 40
0.0
 40
0.0
 40
0.0
 40
0.0769230769230769
 40
0.0769230769230769
 40
0.0769230769230769
 40
0.0769230769230769
 40
0.1538461538461539
 40
0.1538461538461539
 40
0.1538461538461539
 40
0.1538461538461539
 40
0.2307692307692308
 40
0.2307692307692308
 40
0.2307692307692308
 40
0.2307692307692308
 40
0.3076923076923077
 40
0.3076923076923077
 40
0.3076923076923077
 40
0.3076923076923077
 40
0.3846153846153846
 40
0.3846153846153846
 40
0.3846153846153846
 40
0.3846153846153846
 40
0.4615384615384616
 40
0.4615384615384616
 40
0.4615384615384616
 40
0.4615384615384616
 40
0.5384615384615384
 40
0.5384615384615384
 40
0.5384615384615384
 40
0.5384615384615384
 40
0.6153846153846154
 40
0.6153846153846154
 40
0.6153846153846154
 40
0.6153846153846154
 40
0.6923076923076923
 40
0.6923076923076923
 40
0.6923076923076923
 40
0.6923076923076923
 40
0.7692307692307693
 40
0.7692307692307693
 40
0.7692307692307693
 40
0.7692307692307693
 40
0.8461538461538461
 40
0.8461538461538461
 40
0.8461538461538461
 40
0.8461538461538461
 40
1.0
 40
1.0
 40
1.0
 40
1.0
 10
43.9933
 20
-15.2472
 30
0.0
 10
43.7543
 20
-15.2472
 30
0.0
 10
43.5619
 20
-15.2227
 30
0.0
 10
43.4166
 20
-15.1733
 30
0.0
 10
43.4166
 20
-15.1733
 30
0.0
 10
43.2708
 20
-15.1244
 30
0.0
 10
43.1584
 20
-15.051
 30
0.0
 10
43.0793
 20
-14.9541
 30
0.0
 10
43.0793
 20
-14.9541
 30
0.0
 10
43.0003
 20
-14.8572
 30
0.0
 10
42.9608
 20
-14.7354
 30
0.0
 10
42.9608
 20
-14.5887
 30
0.0
 10
42.9608
 20
-14.5887
 30
0.0
 10
42.9608
 20
-14.48
 30
0.0
 10
42.9829
 20
-14.385
 30
0.0
 10
43.0267
 20
-14.3032
 30
0.0
 10
43.0267
 20
-14.3032
 30
0.0
 10
43.0699
 20
-14.2213
 30
0.0
 10
43.133
 20
-14.154
 30
0.0
 10
43.2153
 20
-14.1004
 30
0.0
 10
43.2153
 20
-14.1004
 30
0.0
 10
43.2976
 20
-14.0473
 30
0.0
 10
43.3978
 20
-14.0054
 30
0.0
 10
43.5158
 20
-13.9753
 30
0.0
 10
43.5158
 20
-13.9753
 30
0.0
 10
43.6339
 20
-13.9447
 30
0.0
 10
43.7929
 20
-13.9297
 30
0.0
 10
43.9933
 20
-13.9297
 30
0.0
 10
43.9933
 20
-13.9297
 30
0.0
 10
44.2303
 20
-13.9297
 30
0.0
 10
44.4213
 20
-13.9541
 30
0.0
 10
44.5671
 20
-14.0026
 30
0.0
 10
44.5671
 20
-14.0026
 30
0.0
 10
44.7129
 20
-14.0515
 30
0.0
 10
44.8253
 20
-14.1244
 30
0.0
 10
44.9048
 20
-14.2213
 30
0.0
 10
44.9048
 20
-14.2213
 30
0.0
 10
44.9843
 20
-14.3182
 30
0.0
 10
45.0238
 20
-14.4405
 30
0.0
 10
45.0238
 20
-14.5887
 30
0.0
 10
45.0238
 20
-14.5887
 30
0.0
 10
45.0238
 20
-14.7834
 30
0.0
 10
44.9542
 20
-14.9363
 30
0.0
 10
44.8145
 20
-15.0473
 30
0.0
 10
44.8145
 20
-15.0473
 30
0.0
 10
44.6466
 20
-15.1804
 30
0.0
 10
44.3724
 20
-15.2472
 30
0.0
 10
43.9933
 20
-15.2472
 30
0.0
  0
SPLINE
  5
84
330
1F
100
AcDbEntity
  8
ILUSTRACE
 62
   250
100
AcDbSpline
210
0.0
220
0.0
230
1.0
 70
    11
 71
     3
 72
    36
 73
    32
 74
     0
 42
0.0000000001
 43
0.0000000001
 40
0.0
 40
0.0
 40
0.0
 40
0.0
 40
0.1111111111111111
 40
0.1111111111111111
 40
0.1111111111111111
 40
0.1111111111111111
 40
0.2222222222222222
 40
0.2222222222222222
 40
0.2222222222222222
 40
0.2222222222222222
 40
0.3333333333333333
 40
0.3333333333333333
 40
0.3333333333333333
 40
0.3333333333333333
 40
0.4444444444444444
 40
0.4444444444444444
 40
0.4444444444444444
 40
0.4444444444444444
 40
0.5555555555555556
 40
0.5555555555555556
 40
0.5555555555555556
 40
0.5555555555555556
 40
0.6666666666666666
 40
0.6666666666666666
 40
0.6666666666666666
 40
0.6666666666666666
 40
0.7777777777777778
 40
0.7777777777777778
 40
0.7777777777777778
 40
0.7777777777777778
 40
1.0
 40
1.0
 40
1.0
 40
1.0
 10
43.9933
 20
-14.9922
 30
0.0
 10
44.3249
 20
-14.9922
 30
0.0
 10
44.5455
 20
-14.9532
 30
0.0
 10
44.6555
 20
-14.8756
 30
0.0
 10
44.6555
 20
-14.8756
 30
0.0
 10
44.7651
 20
-14.798
 30
0.0
 10
44.8202
 20
-14.7025
 30
0.0
 10
44.8202
 20
-14.5887
 30
0.0
 10
44.8202
 20
-14.5887
 30
0.0
 10
44.8202
 20
-14.4744
 30
0.0
 10
44.7647
 20
-14.3789
 30
0.0
 10
44.6546
 20
-14.3013
 30
0.0
 10
44.6546
 20
-14.3013
 30
0.0
 10
44.5445
 20
-14.2237
 30
0.0
 10
44.3239
 20
-14.1846
 30
0.0
 10
43.9933
 20
-14.1846
 30
0.0
 10
43.9933
 20
-14.1846
 30
0.0
 10
43.6607
 20
-14.1846
 30
0.0
 10
43.4396
 20
-14.2237
 30
0.0
 10
43.3305
 20
-14.3013
 30
0.0
 10
43.3305
 20
-14.3013
 30
0.0
 10
43.2209
 20
-14.3789
 30
0.0
 10
43.1664
 20
-14.4753
 30
0.0
 10
43.1664
 20
-14.591
 30
0.0
 10
43.1664
 20
-14.591
 30
0.0
 10
43.1664
 20
-14.7053
 30
0.0
 10
43.2148
 20
-14.7961
 30
0.0
 10
43.3112
 20
-14.8643
 30
0.0
 10
43.3112
 20
-14.8643
 30
0.0
 10
43.434
 20
-14.9494
 30
0.0
 10
43.6617
 20
-14.9922
 30
0.0
 10
43.9933
 20
-14.9922
 30
0.0
  0
SPLINE
  5
85
330
1F
100
AcDbEntity
  8
ILUSTRACE
 62
   250
100
AcDbSpline
210
0.0
220
0.0
230
1.0
 70
    11
 71
     3
 72
    84
 73
    80
 74
     0
 42
0.0000000001
 43
0.0000000001
 40
0.0
 40
0.0
 40
0.0
 40
0.0
 40
0.0476190476190476
 40
0.0476190476190476
 40
0.0476190476190476
 40
0.0476190476190476
 40
0.0952380952380952
 40
0.0952380952380952
 40
0.0952380952380952
 40
0.0952380952380952
 40
0.1428571428571428
 40
0.1428571428571428
 40
0.1428571428571428
 40
0.1428571428571428
 40
0.1904761904761905
 40
0.1904761904761905
 40
0.1904761904761905
 40
0.1904761904761905
 40
0.2380952380952381
 40
0.2380952380952381
 40
0.2380952380952381
 40
0.2380952380952381
 40
0.2857142857142857
 40
0.2857142857142857
 40
0.2857142857142857
 40
0.2857142857142857
 40
0.3333333333333333
 40
0.3333333333333333
 40
0.3333333333333333
 40
0.3333333333333333
 40
0.3809523809523809
 40
0.3809523809523809
 40
0.3809523809523809
 40
0.3809523809523809
 40
0.4285714285714285
 40
0.4285714285714285
 40
0.4285714285714285
 40
0.4285714285714285
 40
0.4761904761904762
 40
0.4761904761904762
 40
0.4761904761904762
 40
0.4761904761904762
 40
0.5238095238095238
 40
0.5238095238095238
 40
0.5238095238095238
 40
0.5238095238095238
 40
0.5714285714285714
 40
0.5714285714285714
 40
0.5714285714285714
 40
0.5714285714285714
 40
0.6190476190476191
 40
0.6190476190476191
 40
0.6190476190476191
 40
0.6190476190476191
 40
0.6666666666666666
 40
0.6666666666666666
 40
0.6666666666666666
 40
0.6666666666666666
 40
0.7142857142857143
 40
0.7142857142857143
 40
0.7142857142857143
 40
0.7142857142857143
 40
0.7619047619047619
 40
0.7619047619047619
 40
0.7619047619047619
 40
0.7619047619047619
 40
0.8095238095238095
 40
0.8095238095238095
 40
0.8095238095238095
 40
0.8095238095238095
 40
0.8571428571428571
 40
0.8571428571428571
 40
0.8571428571428571
 40
0.8571428571428571
 40
0.9047619047619048
 40
0.9047619047619048
 40
0.9047619047619048
 40
0.9047619047619048
 40
1.0
 40
1.0
 40
1.0
 40
1.0
 10
18.9397
 20
-5.1305
 30
0.0
 10
18.9397
 20
-5.1305
 30
0.0
 10
18.6806
 20
-4.8991
 30
0.0
 10
18.6806
 20
-4.8991
 30
0.0
 10
18.6806
 20
-4.8991
 30
0.0
 10
18.6806
 20
-4.8991
 30
0.0
 10
18.7963
 20
-4.7627
 30
0.0
 10
18.7963
 20
-4.7627
 30
0.0
 10
18.7963
 20
-4.7627
 30
0.0
 10
18.7963
 20
-4.7627
 30
0.0
 10
19.0691
 20
-5.0049
 30
0.0
 10
19.0691
 20
-5.0049
 30
0.0
 10
19.0691
 20
-5.0049
 30
0.0
 10
19.1867
 20
-4.9259
 30
0.0
 10
19.2897
 20
-4.8728
 30
0.0
 10
19.3776
 20
-4.845
 30
0.0
 10
19.3776
 20
-4.845
 30
0.0
 10
19.4934
 20
-4.8083
 30
0.0
 10
19.6232
 20
-4.79
 30
0.0
 10
19.7662
 20
-4.79
 30
0.0
 10
19.7662
 20
-4.79
 30
0.0
 10
19.9731
 20
-4.79
 30
0.0
 10
20.1575
 20
-4.8318
 30
0.0
 10
20.3188
 20
-4.9156
 30
0.0
 10
20.3188
 20
-4.9156
 30
0.0
 10
20.4807
 20
-4.9993
 30
0.0
 10
20.6029
 20
-5.1164
 30
0.0
 10
20.6857
 20
-5.2674
 30
0.0
 10
20.6857
 20
-5.2674
 30
0.0
 10
20.768
 20
-5.4189
 30
0.0
 10
20.8094
 20
-5.5792
 30
0.0
 10
20.8094
 20
-5.749
 30
0.0
 10
20.8094
 20
-5.749
 30
0.0
 10
20.8094
 20
-5.876
 30
0.0
 10
20.7916
 20
-5.9908
 30
0.0
 10
20.7558
 20
-6.0938
 30
0.0
 10
20.7558
 20
-6.0938
 30
0.0
 10
20.7281
 20
-6.1728
 30
0.0
 10
20.6754
 20
-6.265
 30
0.0
 10
20.5973
 20
-6.3709
 30
0.0
 10
20.5973
 20
-6.3709
 30
0.0
 10
20.5973
 20
-6.3709
 30
0.0
 10
20.8565
 20
-6.6023
 30
0.0
 10
20.8565
 20
-6.6023
 30
0.0
 10
20.8565
 20
-6.6023
 30
0.0
 10
20.8565
 20
-6.6023
 30
0.0
 10
20.7408
 20
-6.7387
 30
0.0
 10
20.7408
 20
-6.7387
 30
0.0
 10
20.7408
 20
-6.7387
 30
0.0
 10
20.7408
 20
-6.7387
 30
0.0
 10
20.4694
 20
-6.496
 30
0.0
 10
20.4694
 20
-6.496
 30
0.0
 10
20.4694
 20
-6.496
 30
0.0
 10
20.3325
 20
-6.5863
 30
0.0
 10
20.2154
 20
-6.6465
 30
0.0
 10
20.1185
 20
-6.6766
 30
0.0
 10
20.1185
 20
-6.6766
 30
0.0
 10
20.0216
 20
-6.7067
 30
0.0
 10
19.9049
 20
-6.7222
 30
0.0
 10
19.769
 20
-6.7222
 30
0.0
 10
19.769
 20
-6.7222
 30
0.0
 10
19.5616
 20
-6.7222
 30
0.0
 10
19.3767
 20
-6.6808
 30
0.0
 10
19.2144
 20
-6.5981
 30
0.0
 10
19.2144
 20
-6.5981
 30
0.0
 10
19.0521
 20
-6.5153
 30
0.0
 10
18.9294
 20
-6.3996
 30
0.0
 10
18.8457
 20
-6.25
 30
0.0
 10
18.8457
 20
-6.25
 30
0.0
 10
18.7624
 20
-6.1009
 30
0.0
 10
18.7205
 20
-5.9348
 30
0.0
 10
18.7205
 20
-5.7519
 30
0.0
 10
18.7205
 20
-5.7519
 30
0.0
 10
18.7205
 20
-5.6286
 30
0.0
 10
18.7365
 20
-5.5209
 30
0.0
 10
18.7695
 20
-5.4287
 30
0.0
 10
18.7695
 20
-5.4287
 30
0.0
 10
18.8019
 20
-5.3365
 30
0.0
 10
18.8588
 20
-5.2368
 30
0.0
 10
18.9397
 20
-5.1305
 30
0.0
  0
SPLINE
  5
86
330
1F
100
AcDbEntity
  8
ILUSTRACE
 62
   250
100
AcDbSpline
210
0.0
220
0.0
230
1.0
 70
    11
 71
     3
 72
    32
 73
    28
 74
     0
 42
0.0000000001
 43
0.0000000001
 40
0.0
 40
0.0
 40
0.0
 40
0.0
 40
0.125
 40
0.125
 40
0.125
 40
0.125
 40
0.25
 40
0.25
 40
0.25
 40
0.25
 40
0.375
 40
0.375
 40
0.375
 40
0.375
 40
0.5
 40
0.5
 40
0.5
 40
0.5
 40
0.625
 40
0.625
 40
0.625
 40
0.625
 40
0.75
 40
0.75
 40
0.75
 40
0.75
 40
1.0
 40
1.0
 40
1.0
 40
1.0
 10
19.1255
 20
-5.2956
 30
0.0
 10
19.0578
 20
-5.3822
 30
0.0
 10
19.0112
 20
-5.4579
 30
0.0
 10
18.9863
 20
-5.5223
 30
0.0
 10
18.9863
 20
-5.5223
 30
0.0
 10
18.9618
 20
-5.5872
 30
0.0
 10
18.9491
 20
-5.6634
 30
0.0
 10
18.9491
 20
-5.7505
 30
0.0
 10
18.9491
 20
-5.7505
 30
0.0
 10
18.9491
 20
-5.9518
 30
0.0
 10
19.0173
 20
-6.1178
 30
0.0
 10
19.1537
 20
-6.2495
 30
0.0
 10
19.1537
 20
-6.2495
 30
0.0
 10
19.2902
 20
-6.3808
 30
0.0
 10
19.4938
 20
-6.4466
 30
0.0
 10
19.7652
 20
-6.4466
 30
0.0
 10
19.7652
 20
-6.4466
 30
0.0
 10
19.8715
 20
-6.4466
 30
0.0
 10
19.9661
 20
-6.4363
 30
0.0
 10
20.0489
 20
-6.416
 30
0.0
 10
20.0489
 20
-6.416
 30
0.0
 10
20.1105
 20
-6.4014
 30
0.0
 10
20.1862
 20
-6.3709
 30
0.0
 10
20.276
 20
-6.3238
 30
0.0
 10
20.276
 20
-6.3238
 30
0.0
 10
20.276
 20
-6.3238
 30
0.0
 10
19.1255
 20
-5.2956
 30
0.0
 10
19.1255
 20
-5.2956
 30
0.0
  0
SPLINE
  5
87
330
1F
100
AcDbEntity
  8
ILUSTRACE
 62
   250
100
AcDbSpline
210
0.0
220
0.0
230
1.0
 70
    11
 71
     3
 72
    28
 73
    24
 74
     0
 42
0.0000000001
 43
0.0000000001
 40
0.0
 40
0.0
 40
0.0
 40
0.0
 40
0.1428571428571428
 40
0.1428571428571428
 40
0.1428571428571428
 40
0.1428571428571428
 40
0.2857142857142857
 40
0.2857142857142857
 40
0.2857142857142857
 40
0.2857142857142857
 40
0.4285714285714285
 40
0.4285714285714285
 40
0.4285714285714285
 40
0.4285714285714285
 40
0.5714285714285714
 40
0.5714285714285714
 40
0.5714285714285714
 40
0.5714285714285714
 40
0.7142857142857143
 40
0.7142857142857143
 40
0.7142857142857143
 40
0.7142857142857143
 40
1.0
 40
1.0
 40
1.0
 40
1.0
 10
19.2676
 20
-5.1827
 30
0.0
 10
19.2676
 20
-5.1827
 30
0.0
 10
20.4139
 20
-6.2067
 30
0.0
 10
20.4139
 20
-6.2067
 30
0.0
 10
20.4139
 20
-6.2067
 30
0.0
 10
20.4717
 20
-6.1362
 30
0.0
 10
20.5122
 20
-6.0708
 30
0.0
 10
20.5352
 20
-6.011
 30
0.0
 10
20.5352
 20
-6.011
 30
0.0
 10
20.5658
 20
-5.933
 30
0.0
 10
20.5808
 20
-5.8483
 30
0.0
 10
20.5808
 20
-5.7575
 30
0.0
 10
20.5808
 20
-5.7575
 30
0.0
 10
20.5808
 20
-5.5571
 30
0.0
 10
20.5103
 20
-5.392
 30
0.0
 10
20.3687
 20
-5.2613
 30
0.0
 10
20.3687
 20
-5.2613
 30
0.0
 10
20.2271
 20
-5.131
 30
0.0
 10
20.0286
 20
-5.0656
 30
0.0
 10
19.7732
 20
-5.0656
 30
0.0
 10
19.7732
 20
-5.0656
 30
0.0
 10
19.5823
 20
-5.0656
 30
0.0
 10
19.4134
 20
-5.1046
 30
0.0
 10
19.2676
 20
-5.1827
 30
0.0
  0
SPLINE
  5
88
330
1F
100
AcDbEntity
  8
ILUSTRACE
 62
   250
100
AcDbSpline
210
0.0
220
0.0
230
1.0
 70
    11
 71
     3
 72
   124
 73
   120
 74
     0
 42
0.0000000001
 43
0.0000000001
 40
0.0
 40
0.0
 40
0.0
 40
0.0
 40
0.032258064516129
 40
0.032258064516129
 40
0.032258064516129
 40
0.032258064516129
 40
0.0645161290322581
 40
0.0645161290322581
 40
0.0645161290322581
 40
0.0645161290322581
 40
0.0967741935483871
 40
0.0967741935483871
 40
0.0967741935483871
 40
0.0967741935483871
 40
0.1290322580645161
 40
0.1290322580645161
 40
0.1290322580645161
 40
0.1290322580645161
 40
0.1612903225806452
 40
0.1612903225806452
 40
0.1612903225806452
 40
0.1612903225806452
 40
0.1935483870967742
 40
0.1935483870967742
 40
0.1935483870967742
 40
0.1935483870967742
 40
0.2258064516129032
 40
0.2258064516129032
 40
0.2258064516129032
 40
0.2258064516129032
 40
0.2580645161290323
 40
0.2580645161290323
 40
0.2580645161290323
 40
0.2580645161290323
 40
0.2903225806451613
 40
0.2903225806451613
 40
0.2903225806451613
 40
0.2903225806451613
 40
0.3225806451612903
 40
0.3225806451612903
 40
0.3225806451612903
 40
0.3225806451612903
 40
0.3548387096774194
 40
0.3548387096774194
 40
0.3548387096774194
 40
0.3548387096774194
 40
0.3870967741935484
 40
0.3870967741935484
 40
0.3870967741935484
 40
0.3870967741935484
 40
0.4193548387096774
 40
0.4193548387096774
 40
0.4193548387096774
 40
0.4193548387096774
 40
0.4516129032258064
 40
0.4516129032258064
 40
0.4516129032258064
 40
0.4516129032258064
 40
0.4838709677419355
 40
0.4838709677419355
 40
0.4838709677419355
 40
0.4838709677419355
 40
0.5161290322580645
 40
0.5161290322580645
 40
0.5161290322580645
 40
0.5161290322580645
 40
0.5483870967741935
 40
0.5483870967741935
 40
0.5483870967741935
 40
0.5483870967741935
 40
0.5806451612903226
 40
0.5806451612903226
 40
0.5806451612903226
 40
0.5806451612903226
 40
0.6129032258064516
 40
0.6129032258064516
 40
0.6129032258064516
 40
0.6129032258064516
 40
0.6451612903225806
 40
0.6451612903225806
 40
0.6451612903225806
 40
0.6451612903225806
 40
0.6774193548387096
 40
0.6774193548387096
 40
0.6774193548387096
 40
0.6774193548387096
 40
0.7096774193548387
 40
0.7096774193548387
 40
0.7096774193548387
 40
0.7096774193548387
 40
0.7419354838709677
 40
0.7419354838709677
 40
0.7419354838709677
 40
0.7419354838709677
 40
0.7741935483870968
 40
0.7741935483870968
 40
0.7741935483870968
 40
0.7741935483870968
 40
0.8064516129032258
 40
0.8064516129032258
 40
0.8064516129032258
 40
0.8064516129032258
 40
0.8387096774193549
 40
0.8387096774193549
 40
0.8387096774193549
 40
0.8387096774193549
 40
0.8709677419354839
 40
0.8709677419354839
 40
0.8709677419354839
 40
0.8709677419354839
 40
0.9032258064516129
 40
0.9032258064516129
 40
0.9032258064516129
 40
0.9032258064516129
 40
0.9354838709677419
 40
0.9354838709677419
 40
0.9354838709677419
 40
0.9354838709677419
 40
1.0
 40
1.0
 40
1.0
 40
1.0
 10
20.2417
 20
-4.5393
 30
0.0
 10
20.2417
 20
-4.5393
 30
0.0
 10
20.2088
 20
-4.2914
 30
0.0
 10
20.2088
 20
-4.2914
 30
0.0
 10
20.2088
 20
-4.2914
 30
0.0
 10
20.3494
 20
-4.2627
 30
0.0
 10
20.4505
 20
-4.2142
 30
0.0
 10
20.5126
 20
-4.146
 30
0.0
 10
20.5126
 20
-4.146
 30
0.0
 10
20.5747
 20
-4.0774
 30
0.0
 10
20.6058
 20
-3.9941
 30
0.0
 10
20.6058
 20
-3.8958
 30
0.0
 10
20.6058
 20
-3.8958
 30
0.0
 10
20.6058
 20
-3.7792
 30
0.0
 10
20.5653
 20
-3.6804
 30
0.0
 10
20.4844
 20
-3.5999
 30
0.0
 10
20.4844
 20
-3.5999
 30
0.0
 10
20.4035
 20
-3.52
 30
0.0
 10
20.3033
 20
-3.4795
 30
0.0
 10
20.1838
 20
-3.4795
 30
0.0
 10
20.1838
 20
-3.4795
 30
0.0
 10
20.07
 20
-3.4795
 30
0.0
 10
19.9759
 20
-3.5167
 30
0.0
 10
19.9021
 20
-3.591
 30
0.0
 10
19.9021
 20
-3.591
 30
0.0
 10
19.8283
 20
-3.6658
 30
0.0
 10
19.7911
 20
-3.7603
 30
0.0
 10
19.7911
 20
-3.8751
 30
0.0
 10
19.7911
 20
-3.8751
 30
0.0
 10
19.7911
 20
-3.9221
 30
0.0
 10
19.8005
 20
-3.9805
 30
0.0
 10
19.8188
 20
-4.0501
 30
0.0
 10
19.8188
 20
-4.0501
 30
0.0
 10
19.8188
 20
-4.0501
 30
0.0
 10
19.6011
 20
-4.0223
 30
0.0
 10
19.6011
 20
-4.0223
 30
0.0
 10
19.6011
 20
-4.0223
 30
0.0
 10
19.6029
 20
-4.0059
 30
0.0
 10
19.6039
 20
-3.9927
 30
0.0
 10
19.6039
 20
-3.9824
 30
0.0
 10
19.6039
 20
-3.9824
 30
0.0
 10
19.6039
 20
-3.877
 30
0.0
 10
19.5761
 20
-3.782
 30
0.0
 10
19.5211
 20
-3.6973
 30
0.0
 10
19.5211
 20
-3.6973
 30
0.0
 10
19.4661
 20
-3.6126
 30
0.0
 10
19.3809
 20
-3.5703
 30
0.0
 10
19.2662
 20
-3.5703
 30
0.0
 10
19.2662
 20
-3.5703
 30
0.0
 10
19.1754
 20
-3.5703
 30
0.0
 10
19.0997
 20
-3.6014
 30
0.0
 10
19.0404
 20
-3.663
 30
0.0
 10
19.0404
 20
-3.663
 30
0.0
 10
18.9807
 20
-3.7246
 30
0.0
 10
18.9505
 20
-3.8041
 30
0.0
 10
18.9505
 20
-3.9015
 30
0.0
 10
18.9505
 20
-3.9015
 30
0.0
 10
18.9505
 20
-3.9979
 30
0.0
 10
18.9811
 20
-4.0783
 30
0.0
 10
19.0413
 20
-4.1423
 30
0.0
 10
19.0413
 20
-4.1423
 30
0.0
 10
19.102
 20
-4.2067
 30
0.0
 10
19.1933
 20
-4.2481
 30
0.0
 10
19.3146
 20
-4.2665
 30
0.0
 10
19.3146
 20
-4.2665
 30
0.0
 10
19.3146
 20
-4.2665
 30
0.0
 10
19.2704
 20
-4.5143
 30
0.0
 10
19.2704
 20
-4.5143
 30
0.0
 10
19.2704
 20
-4.5143
 30
0.0
 10
19.1039
 20
-4.4842
 30
0.0
 10
18.975
 20
-4.4151
 30
0.0
 10
18.8838
 20
-4.3078
 30
0.0
 10
18.8838
 20
-4.3078
 30
0.0
 10
18.7925
 20
-4.2001
 30
0.0
 10
18.7464
 20
-4.0665
 30
0.0
 10
18.7464
 20
-3.9066
 30
0.0
 10
18.7464
 20
-3.9066
 30
0.0
 10
18.7464
 20
-3.7966
 30
0.0
 10
18.7704
 20
-3.695
 30
0.0
 10
18.8174
 20
-3.6023
 30
0.0
 10
18.8174
 20
-3.6023
 30
0.0
 10
18.8649
 20
-3.5096
 30
0.0
 10
18.9294
 20
-3.4386
 30
0.0
 10
19.0112
 20
-3.3892
 30
0.0
 10
19.0112
 20
-3.3892
 30
0.0
 10
19.0931
 20
-3.3403
 30
0.0
 10
19.1796
 20
-3.3154
 30
0.0
 10
19.2718
 20
-3.3154
 30
0.0
 10
19.2718
 20
-3.3154
 30
0.0
 10
19.3588
 20
-3.3154
 30
0.0
 10
19.4383
 20
-3.3389
 30
0.0
 10
19.5103
 20
-3.3859
 30
0.0
 10
19.5103
 20
-3.3859
 30
0.0
 10
19.5818
 20
-3.433
 30
0.0
 10
19.6387
 20
-3.5021
 30
0.0
 10
19.681
 20
-3.5938
 30
0.0
 10
19.681
 20
-3.5938
 30
0.0
 10
19.7083
 20
-3.4744
 30
0.0
 10
19.7657
 20
-3.3817
 30
0.0
 10
19.8527
 20
-3.3154
 30
0.0
 10
19.8527
 20
-3.3154
 30
0.0
 10
19.9393
 20
-3.2495
 30
0.0
 10
20.0479
 20
-3.2166
 30
0.0
 10
20.1782
 20
-3.2166
 30
0.0
 10
20.1782
 20
-3.2166
 30
0.0
 10
20.3546
 20
-3.2166
 30
0.0
 10
20.5042
 20
-3.2806
 30
0.0
 10
20.6269
 20
-3.4094
 30
0.0
 10
20.6269
 20
-3.4094
 30
0.0
 10
20.7497
 20
-3.5379
 30
0.0
 10
20.8108
 20
-3.7006
 30
0.0
 10
20.8108
 20
-3.8972
 30
0.0
 10
20.8108
 20
-3.8972
 30
0.0
 10
20.8108
 20
-4.0745
 30
0.0
 10
20.7582
 20
-4.2218
 30
0.0
 10
20.6523
 20
-4.3389
 30
0.0
 10
20.6523
 20
-4.3389
 30
0.0
 10
20.547
 20
-4.456
 30
0.0
 10
20.4101
 20
-4.5228
 30
0.0
 10
20.2417
 20
-4.5393
 30
0.0
  0
SPLINE
  5
89
330
1F
100
AcDbEntity
  8
ILUSTRACE
 62
   250
100
AcDbSpline
210
0.0
220
0.0
230
1.0
 70
    11
 71
     3
 72
    92
 73
    88
 74
     0
 42
0.0000000001
 43
0.0000000001
 40
0.0
 40
0.0
 40
0.0
 40
0.0
 40
0.0434782608695652
 40
0.0434782608695652
 40
0.0434782608695652
 40
0.0434782608695652
 40
0.0869565217391304
 40
0.0869565217391304
 40
0.0869565217391304
 40
0.0869565217391304
 40
0.1304347826086956
 40
0.1304347826086956
 40
0.1304347826086956
 40
0.1304347826086956
 40
0.1739130434782609
 40
0.1739130434782609
 40
0.1739130434782609
 40
0.1739130434782609
 40
0.2173913043478261
 40
0.2173913043478261
 40
0.2173913043478261
 40
0.2173913043478261
 40
0.2608695652173913
 40
0.2608695652173913
 40
0.2608695652173913
 40
0.2608695652173913
 40
0.3043478260869565
 40
0.3043478260869565
 40
0.3043478260869565
 40
0.3043478260869565
 40
0.3478260869565217
 40
0.3478260869565217
 40
0.3478260869565217
 40
0.3478260869565217
 40
0.391304347826087
 40
0.391304347826087
 40
0.391304347826087
 40
0.391304347826087
 40
0.4347826086956522
 40
0.4347826086956522
 40
0.4347826086956522
 40
0.4347826086956522
 40
0.4782608695652174
 40
0.4782608695652174
 40
0.4782608695652174
 40
0.4782608695652174
 40
0.5217391304347826
 40
0.5217391304347826
 40
0.5217391304347826
 40
0.5217391304347826
 40
0.5652173913043478
 40
0.5652173913043478
 40
0.5652173913043478
 40
0.5652173913043478
 40
0.6086956521739131
 40
0.6086956521739131
 40
0.6086956521739131
 40
0.6086956521739131
 40
0.6521739130434783
 40
0.6521739130434783
 40
0.6521739130434783
 40
0.6521739130434783
 40
0.6956521739130435
 40
0.6956521739130435
 40
0.6956521739130435
 40
0.6956521739130435
 40
0.7391304347826086
 40
0.7391304347826086
 40
0.7391304347826086
 40
0.7391304347826086
 40
0.782608695652174
 40
0.782608695652174
 40
0.782608695652174
 40
0.782608695652174
 40
0.8260869565217391
 40
0.8260869565217391
 40
0.8260869565217391
 40
0.8260869565217391
 40
0.8695652173913043
 40
0.8695652173913043
 40
0.8695652173913043
 40
0.8695652173913043
 40
0.9130434782608695
 40
0.9130434782608695
 40
0.9130434782608695
 40
0.9130434782608695
 40
1.0
 40
1.0
 40
1.0
 40
1.0
 10
20.5366
 20
-1.6672
 30
0.0
 10
20.5366
 20
-1.6672
 30
0.0
 10
20.7751
 20
-1.6672
 30
0.0
 10
20.7751
 20
-1.6672
 30
0.0
 10
20.7751
 20
-1.6672
 30
0.0
 10
20.7751
 20
-1.6672
 30
0.0
 10
20.7751
 20
-3.0026
 30
0.0
 10
20.7751
 20
-3.0026
 30
0.0
 10
20.7751
 20
-3.0026
 30
0.0
 10
20.7154
 20
-3.0045
 30
0.0
 10
20.658
 20
-2.9951
 30
0.0
 10
20.6029
 20
-2.9739
 30
0.0
 10
20.6029
 20
-2.9739
 30
0.0
 10
20.5117
 20
-2.94
 30
0.0
 10
20.4223
 20
-2.8855
 30
0.0
 10
20.3339
 20
-2.8107
 30
0.0
 10
20.3339
 20
-2.8107
 30
0.0
 10
20.2459
 20
-2.7354
 30
0.0
 10
20.1439
 20
-2.6272
 30
0.0
 10
20.0282
 20
-2.4861
 30
0.0
 10
20.0282
 20
-2.4861
 30
0.0
 10
19.848
 20
-2.2665
 30
0.0
 10
19.7055
 20
-2.1178
 30
0.0
 10
19.6001
 20
-2.0407
 30
0.0
 10
19.6001
 20
-2.0407
 30
0.0
 10
19.4952
 20
-1.9636
 30
0.0
 10
19.3955
 20
-1.925
 30
0.0
 10
19.3019
 20
-1.925
 30
0.0
 10
19.3019
 20
-1.925
 30
0.0
 10
19.2036
 20
-1.925
 30
0.0
 10
19.1208
 20
-1.9603
 30
0.0
 10
19.0531
 20
-2.0303
 30
0.0
 10
19.0531
 20
-2.0303
 30
0.0
 10
18.9858
 20
-2.1009
 30
0.0
 10
18.952
 20
-2.1926
 30
0.0
 10
18.952
 20
-2.3055
 30
0.0
 10
18.952
 20
-2.3055
 30
0.0
 10
18.952
 20
-2.425
 30
0.0
 10
18.9877
 20
-2.5205
 30
0.0
 10
19.0597
 20
-2.592
 30
0.0
 10
19.0597
 20
-2.592
 30
0.0
 10
19.1312
 20
-2.6639
 30
0.0
 10
19.2304
 20
-2.7001
 30
0.0
 10
19.3569
 20
-2.7011
 30
0.0
 10
19.3569
 20
-2.7011
 30
0.0
 10
19.3569
 20
-2.7011
 30
0.0
 10
19.3311
 20
-2.956
 30
0.0
 10
19.3311
 20
-2.956
 30
0.0
 10
19.3311
 20
-2.956
 30
0.0
 10
19.1406
 20
-2.9386
 30
0.0
 10
18.9957
 20
-2.8728
 30
0.0
 10
18.896
 20
-2.7589
 30
0.0
 10
18.896
 20
-2.7589
 30
0.0
 10
18.7963
 20
-2.6451
 30
0.0
 10
18.7464
 20
-2.4918
 30
0.0
 10
18.7464
 20
-2.2999
 30
0.0
 10
18.7464
 20
-2.2999
 30
0.0
 10
18.7464
 20
-2.1061
 30
0.0
 10
18.8005
 20
-1.9527
 30
0.0
 10
18.9077
 20
-1.8398
 30
0.0
 10
18.9077
 20
-1.8398
 30
0.0
 10
19.0155
 20
-1.7265
 30
0.0
 10
19.1486
 20
-1.67
 30
0.0
 10
19.3076
 20
-1.67
 30
0.0
 10
19.3076
 20
-1.67
 30
0.0
 10
19.3885
 20
-1.67
 30
0.0
 10
19.468
 20
-1.6865
 30
0.0
 10
19.546
 20
-1.7199
 30
0.0
 10
19.546
 20
-1.7199
 30
0.0
 10
19.6241
 20
-1.7528
 30
0.0
 10
19.7064
 20
-1.8079
 30
0.0
 10
19.7925
 20
-1.8845
 30
0.0
 10
19.7925
 20
-1.8845
 30
0.0
 10
19.8791
 20
-1.9612
 30
0.0
 10
19.9976
 20
-2.0887
 30
0.0
 10
20.1481
 20
-2.2669
 30
0.0
 10
20.1481
 20
-2.2669
 30
0.0
 10
20.2732
 20
-2.4156
 30
0.0
 10
20.3579
 20
-2.5111
 30
0.0
 10
20.4026
 20
-2.5534
 30
0.0
 10
20.4026
 20
-2.5534
 30
0.0
 10
20.4468
 20
-2.5957
 30
0.0
 10
20.4915
 20
-2.6305
 30
0.0
 10
20.5366
 20
-2.6583
 30
0.0
 10
20.5366
 20
-2.6583
 30
0.0
 10
20.5366
 20
-2.6583
 30
0.0
 10
20.5366
 20
-1.6672
 30
0.0
 10
20.5366
 20
-1.6672
 30
0.0
  0
SPLINE
  5
8A
330
1F
100
AcDbEntity
  8
ILUSTRACE
 62
   250
100
AcDbSpline
210
0.0
220
0.0
230
1.0
 70
    11
 71
     3
 72
    84
 73
    80
 74
     0
 42
0.0000000001
 43
0.0000000001
 40
0.0
 40
0.0
 40
0.0
 40
0.0
 40
0.0476190476190476
 40
0.0476190476190476
 40
0.0476190476190476
 40
0.0476190476190476
 40
0.0952380952380952
 40
0.0952380952380952
 40
0.0952380952380952
 40
0.0952380952380952
 40
0.1428571428571428
 40
0.1428571428571428
 40
0.1428571428571428
 40
0.1428571428571428
 40
0.1904761904761905
 40
0.1904761904761905
 40
0.1904761904761905
 40
0.1904761904761905
 40
0.2380952380952381
 40
0.2380952380952381
 40
0.2380952380952381
 40
0.2380952380952381
 40
0.2857142857142857
 40
0.2857142857142857
 40
0.2857142857142857
 40
0.2857142857142857
 40
0.3333333333333333
 40
0.3333333333333333
 40
0.3333333333333333
 40
0.3333333333333333
 40
0.3809523809523809
 40
0.3809523809523809
 40
0.3809523809523809
 40
0.3809523809523809
 40
0.4285714285714285
 40
0.4285714285714285
 40
0.4285714285714285
 40
0.4285714285714285
 40
0.4761904761904762
 40
0.4761904761904762
 40
0.4761904761904762
 40
0.4761904761904762
 40
0.5238095238095238
 40
0.5238095238095238
 40
0.5238095238095238
 40
0.5238095238095238
 40
0.5714285714285714
 40
0.5714285714285714
 40
0.5714285714285714
 40
0.5714285714285714
 40
0.6190476190476191
 40
0.6190476190476191
 40
0.6190476190476191
 40
0.6190476190476191
 40
0.6666666666666666
 40
0.6666666666666666
 40
0.6666666666666666
 40
0.6666666666666666
 40
0.7142857142857143
 40
0.7142857142857143
 40
0.7142857142857143
 40
0.7142857142857143
 40
0.7619047619047619
 40
0.7619047619047619
 40
0.7619047619047619
 40
0.7619047619047619
 40
0.8095238095238095
 40
0.8095238095238095
 40
0.8095238095238095
 40
0.8095238095238095
 40
0.8571428571428571
 40
0.8571428571428571
 40
0.8571428571428571
 40
0.8571428571428571
 40
0.9047619047619048
 40
0.9047619047619048
 40
0.9047619047619048
 40
0.9047619047619048
 40
1.0
 40
1.0
 40
1.0
 40
1.0
 10
-34.0331
 20
-26.9001
 30
0.0
 10
-34.0331
 20
-26.9001
 30
0.0
 10
-33.8017
 20
-26.641
 30
0.0
 10
-33.8017
 20
-26.641
 30
0.0
 10
-33.8017
 20
-26.641
 30
0.0
 10
-33.8017
 20
-26.641
 30
0.0
 10
-33.6653
 20
-26.7567
 30
0.0
 10
-33.6653
 20
-26.7567
 30
0.0
 10
-33.6653
 20
-26.7567
 30
0.0
 10
-33.6653
 20
-26.7567
 30
0.0
 10
-33.9075
 20
-27.0295
 30
0.0
 10
-33.9075
 20
-27.0295
 30
0.0
 10
-33.9075
 20
-27.0295
 30
0.0
 10
-33.8285
 20
-27.1471
 30
0.0
 10
-33.7754
 20
-27.2501
 30
0.0
 10
-33.7476
 20
-27.338
 30
0.0
 10
-33.7476
 20
-27.338
 30
0.0
 10
-33.7109
 20
-27.4538
 30
0.0
 10
-33.6926
 20
-27.5836
 30
0.0
 10
-33.6926
 20
-27.7266
 30
0.0
 10
-33.6926
 20
-27.7266
 30
0.0
 10
-33.6926
 20
-27.9335
 30
0.0
 10
-33.7344
 20
-28.1179
 30
0.0
 10
-33.8182
 20
-28.2792
 30
0.0
 10
-33.8182
 20
-28.2792
 30
0.0
 10
-33.9019
 20
-28.4411
 30
0.0
 10
-34.019
 20
-28.5633
 30
0.0
 10
-34.17
 20
-28.6461
 30
0.0
 10
-34.17
 20
-28.6461
 30
0.0
 10
-34.3215
 20
-28.7284
 30
0.0
 10
-34.4818
 20
-28.7698
 30
0.0
 10
-34.6516
 20
-28.7698
 30
0.0
 10
-34.6516
 20
-28.7698
 30
0.0
 10
-34.7786
 20
-28.7698
 30
0.0
 10
-34.8934
 20
-28.752
 30
0.0
 10
-34.9964
 20
-28.7162
 30
0.0
 10
-34.9964
 20
-28.7162
 30
0.0
 10
-35.0754
 20
-28.6885
 30
0.0
 10
-35.1676
 20
-28.6358
 30
0.0
 10
-35.2735
 20
-28.5577
 30
0.0
 10
-35.2735
 20
-28.5577
 30
0.0
 10
-35.2735
 20
-28.5577
 30
0.0
 10
-35.5049
 20
-28.8169
 30
0.0
 10
-35.5049
 20
-28.8169
 30
0.0
 10
-35.5049
 20
-28.8169
 30
0.0
 10
-35.5049
 20
-28.8169
 30
0.0
 10
-35.6413
 20
-28.7012
 30
0.0
 10
-35.6413
 20
-28.7012
 30
0.0
 10
-35.6413
 20
-28.7012
 30
0.0
 10
-35.6413
 20
-28.7012
 30
0.0
 10
-35.3986
 20
-28.4298
 30
0.0
 10
-35.3986
 20
-28.4298
 30
0.0
 10
-35.3986
 20
-28.4298
 30
0.0
 10
-35.4889
 20
-28.2929
 30
0.0
 10
-35.5491
 20
-28.1758
 30
0.0
 10
-35.5792
 20
-28.0789
 30
0.0
 10
-35.5792
 20
-28.0789
 30
0.0
 10
-35.6093
 20
-27.982
 30
0.0
 10
-35.6248
 20
-27.8653
 30
0.0
 10
-35.6248
 20
-27.7294
 30
0.0
 10
-35.6248
 20
-27.7294
 30
0.0
 10
-35.6248
 20
-27.522
 30
0.0
 10
-35.5834
 20
-27.3371
 30
0.0
 10
-35.5007
 20
-27.1748
 30
0.0
 10
-35.5007
 20
-27.1748
 30
0.0
 10
-35.4179
 20
-27.0125
 30
0.0
 10
-35.3022
 20
-26.8898
 30
0.0
 10
-35.1526
 20
-26.8061
 30
0.0
 10
-35.1526
 20
-26.8061
 30
0.0
 10
-35.0035
 20
-26.7228
 30
0.0
 10
-34.8374
 20
-26.6809
 30
0.0
 10
-34.6545
 20
-26.6809
 30
0.0
 10
-34.6545
 20
-26.6809
 30
0.0
 10
-34.5312
 20
-26.6809
 30
0.0
 10
-34.4235
 20
-26.6969
 30
0.0
 10
-34.3313
 20
-26.7299
 30
0.0
 10
-34.3313
 20
-26.7299
 30
0.0
 10
-34.2391
 20
-26.7623
 30
0.0
 10
-34.1394
 20
-26.8192
 30
0.0
 10
-34.0331
 20
-26.9001
 30
0.0
  0
SPLINE
  5
8B
330
1F
100
AcDbEntity
  8
ILUSTRACE
 62
   250
100
AcDbSpline
210
0.0
220
0.0
230
1.0
 70
    11
 71
     3
 72
    32
 73
    28
 74
     0
 42
0.0000000001
 43
0.0000000001
 40
0.0
 40
0.0
 40
0.0
 40
0.0
 40
0.125
 40
0.125
 40
0.125
 40
0.125
 40
0.25
 40
0.25
 40
0.25
 40
0.25
 40
0.375
 40
0.375
 40
0.375
 40
0.375
 40
0.5
 40
0.5
 40
0.5
 40
0.5
 40
0.625
 40
0.625
 40
0.625
 40
0.625
 40
0.75
 40
0.75
 40
0.75
 40
0.75
 40
1.0
 40
1.0
 40
1.0
 40
1.0
 10
-34.1982
 20
-27.0859
 30
0.0
 10
-34.2848
 20
-27.0182
 30
0.0
 10
-34.3605
 20
-26.9716
 30
0.0
 10
-34.4249
 20
-26.9467
 30
0.0
 10
-34.4249
 20
-26.9467
 30
0.0
 10
-34.4898
 20
-26.9222
 30
0.0
 10
-34.566
 20
-26.9095
 30
0.0
 10
-34.6531
 20
-26.9095
 30
0.0
 10
-34.6531
 20
-26.9095
 30
0.0
 10
-34.8544
 20
-26.9095
 30
0.0
 10
-35.0204
 20
-26.9777
 30
0.0
 10
-35.1521
 20
-27.1141
 30
0.0
 10
-35.1521
 20
-27.1141
 30
0.0
 10
-35.2834
 20
-27.2506
 30
0.0
 10
-35.3492
 20
-27.4542
 30
0.0
 10
-35.3492
 20
-27.7256
 30
0.0
 10
-35.3492
 20
-27.7256
 30
0.0
 10
-35.3492
 20
-27.8319
 30
0.0
 10
-35.3389
 20
-27.9265
 30
0.0
 10
-35.3186
 20
-28.0093
 30
0.0
 10
-35.3186
 20
-28.0093
 30
0.0
 10
-35.304
 20
-28.0709
 30
0.0
 10
-35.2735
 20
-28.1466
 30
0.0
 10
-35.2264
 20
-28.2364
 30
0.0
 10
-35.2264
 20
-28.2364
 30
0.0
 10
-35.2264
 20
-28.2364
 30
0.0
 10
-34.1982
 20
-27.0859
 30
0.0
 10
-34.1982
 20
-27.0859
 30
0.0
  0
SPLINE
  5
8C
330
1F
100
AcDbEntity
  8
ILUSTRACE
 62
   250
100
AcDbSpline
210
0.0
220
0.0
230
1.0
 70
    11
 71
     3
 72
    28
 73
    24
 74
     0
 42
0.0000000001
 43
0.0000000001
 40
0.0
 40
0.0
 40
0.0
 40
0.0
 40
0.1428571428571428
 40
0.1428571428571428
 40
0.1428571428571428
 40
0.1428571428571428
 40
0.2857142857142857
 40
0.2857142857142857
 40
0.2857142857142857
 40
0.2857142857142857
 40
0.4285714285714285
 40
0.4285714285714285
 40
0.4285714285714285
 40
0.4285714285714285
 40
0.5714285714285714
 40
0.5714285714285714
 40
0.5714285714285714
 40
0.5714285714285714
 40
0.7142857142857143
 40
0.7142857142857143
 40
0.7142857142857143
 40
0.7142857142857143
 40
1.0
 40
1.0
 40
1.0
 40
1.0
 10
-34.0853
 20
-27.228
 30
0.0
 10
-34.0853
 20
-27.228
 30
0.0
 10
-35.1093
 20
-28.3743
 30
0.0
 10
-35.1093
 20
-28.3743
 30
0.0
 10
-35.1093
 20
-28.3743
 30
0.0
 10
-35.0388
 20
-28.4321
 30
0.0
 10
-34.9734
 20
-28.4726
 30
0.0
 10
-34.9136
 20
-28.4956
 30
0.0
 10
-34.9136
 20
-28.4956
 30
0.0
 10
-34.8356
 20
-28.5262
 30
0.0
 10
-34.7509
 20
-28.5412
 30
0.0
 10
-34.6601
 20
-28.5412
 30
0.0
 10
-34.6601
 20
-28.5412
 30
0.0
 10
-34.4597
 20
-28.5412
 30
0.0
 10
-34.2946
 20
-28.4707
 30
0.0
 10
-34.1639
 20
-28.3291
 30
0.0
 10
-34.1639
 20
-28.3291
 30
0.0
 10
-34.0336
 20
-28.1875
 30
0.0
 10
-33.9682
 20
-27.989
 30
0.0
 10
-33.9682
 20
-27.7336
 30
0.0
 10
-33.9682
 20
-27.7336
 30
0.0
 10
-33.9682
 20
-27.5427
 30
0.0
 10
-34.0072
 20
-27.3738
 30
0.0
 10
-34.0853
 20
-27.228
 30
0.0
  0
SPLINE
  5
8D
330
1F
100
AcDbEntity
  8
ILUSTRACE
 62
   250
100
AcDbSpline
210
0.0
220
0.0
230
1.0
 70
    11
 71
     3
 72
    48
 73
    44
 74
     0
 42
0.0000000001
 43
0.0000000001
 40
0.0
 40
0.0
 40
0.0
 40
0.0
 40
0.0833333333333333
 40
0.0833333333333333
 40
0.0833333333333333
 40
0.0833333333333333
 40
0.1666666666666667
 40
0.1666666666666667
 40
0.1666666666666667
 40
0.1666666666666667
 40
0.25
 40
0.25
 40
0.25
 40
0.25
 40
0.3333333333333333
 40
0.3333333333333333
 40
0.3333333333333333
 40
0.3333333333333333
 40
0.4166666666666667
 40
0.4166666666666667
 40
0.4166666666666667
 40
0.4166666666666667
 40
0.5
 40
0.5
 40
0.5
 40
0.5
 40
0.5833333333333334
 40
0.5833333333333334
 40
0.5833333333333334
 40
0.5833333333333334
 40
0.6666666666666666
 40
0.6666666666666666
 40
0.6666666666666666
 40
0.6666666666666666
 40
0.75
 40
0.75
 40
0.75
 40
0.75
 40
0.8333333333333334
 40
0.8333333333333334
 40
0.8333333333333334
 40
0.8333333333333334
 40
1.0
 40
1.0
 40
1.0
 40
1.0
 10
-32.6484
 20
-28.7355
 30
0.0
 10
-32.6484
 20
-28.7355
 30
0.0
 10
-32.6484
 20
-28.252
 30
0.0
 10
-32.6484
 20
-28.252
 30
0.0
 10
-32.6484
 20
-28.252
 30
0.0
 10
-32.6484
 20
-28.252
 30
0.0
 10
-33.5247
 20
-28.252
 30
0.0
 10
-33.5247
 20
-28.252
 30
0.0
 10
-33.5247
 20
-28.252
 30
0.0
 10
-33.5247
 20
-28.252
 30
0.0
 10
-33.5247
 20
-28.0243
 30
0.0
 10
-33.5247
 20
-28.0243
 30
0.0
 10
-33.5247
 20
-28.0243
 30
0.0
 10
-33.5247
 20
-28.0243
 30
0.0
 10
-32.6027
 20
-26.7153
 30
0.0
 10
-32.6027
 20
-26.7153
 30
0.0
 10
-32.6027
 20
-26.7153
 30
0.0
 10
-32.6027
 20
-26.7153
 30
0.0
 10
-32.4
 20
-26.7153
 30
0.0
 10
-32.4
 20
-26.7153
 30
0.0
 10
-32.4
 20
-26.7153
 30
0.0
 10
-32.4
 20
-26.7153
 30
0.0
 10
-32.4
 20
-28.0243
 30
0.0
 10
-32.4
 20
-28.0243
 30
0.0
 10
-32.4
 20
-28.0243
 30
0.0
 10
-32.4
 20
-28.0243
 30
0.0
 10
-32.1272
 20
-28.0243
 30
0.0
 10
-32.1272
 20
-28.0243
 30
0.0
 10
-32.1272
 20
-28.0243
 30
0.0
 10
-32.1272
 20
-28.0243
 30
0.0
 10
-32.1272
 20
-28.252
 30
0.0
 10
-32.1272
 20
-28.252
 30
0.0
 10
-32.1272
 20
-28.252
 30
0.0
 10
-32.1272
 20
-28.252
 30
0.0
 10
-32.4
 20
-28.252
 30
0.0
 10
-32.4
 20
-28.252
 30
0.0
 10
-32.4
 20
-28.252
 30
0.0
 10
-32.4
 20
-28.252
 30
0.0
 10
-32.4
 20
-28.7355
 30
0.0
 10
-32.4
 20
-28.7355
 30
0.0
 10
-32.4
 20
-28.7355
 30
0.0
 10
-32.4
 20
-28.7355
 30
0.0
 10
-32.6484
 20
-28.7355
 30
0.0
 10
-32.6484
 20
-28.7355
 30
0.0
  0
SPLINE
  5
8E
330
1F
100
AcDbEntity
  8
ILUSTRACE
 62
   250
100
AcDbSpline
210
0.0
220
0.0
230
1.0
 70
    11
 71
     3
 72
    16
 73
    12
 74
     0
 42
0.0000000001
 43
0.0000000001
 40
0.0
 40
0.0
 40
0.0
 40
0.0
 40
0.25
 40
0.25
 40
0.25
 40
0.25
 40
0.5
 40
0.5
 40
0.5
 40
0.5
 40
1.0
 40
1.0
 40
1.0
 40
1.0
 10
-32.6484
 20
-28.0243
 30
0.0
 10
-32.6484
 20
-28.0243
 30
0.0
 10
-32.6484
 20
-27.1137
 30
0.0
 10
-32.6484
 20
-27.1137
 30
0.0
 10
-32.6484
 20
-27.1137
 30
0.0
 10
-32.6484
 20
-27.1137
 30
0.0
 10
-33.2805
 20
-28.0243
 30
0.0
 10
-33.2805
 20
-28.0243
 30
0.0
 10
-33.2805
 20
-28.0243
 30
0.0
 10
-33.2805
 20
-28.0243
 30
0.0
 10
-32.6484
 20
-28.0243
 30
0.0
 10
-32.6484
 20
-28.0243
 30
0.0
  0
SPLINE
  5
8F
330
1F
100
AcDbEntity
  8
ILUSTRACE
 62
   250
100
AcDbSpline
210
0.0
220
0.0
230
1.0
 70
    11
 71
     3
 72
    48
 73
    44
 74
     0
 42
0.0000000001
 43
0.0000000001
 40
0.0
 40
0.0
 40
0.0
 40
0.0
 40
0.0833333333333333
 40
0.0833333333333333
 40
0.0833333333333333
 40
0.0833333333333333
 40
0.1666666666666667
 40
0.1666666666666667
 40
0.1666666666666667
 40
0.1666666666666667
 40
0.25
 40
0.25
 40
0.25
 40
0.25
 40
0.3333333333333333
 40
0.3333333333333333
 40
0.3333333333333333
 40
0.3333333333333333
 40
0.4166666666666667
 40
0.4166666666666667
 40
0.4166666666666667
 40
0.4166666666666667
 40
0.5
 40
0.5
 40
0.5
 40
0.5
 40
0.5833333333333334
 40
0.5833333333333334
 40
0.5833333333333334
 40
0.5833333333333334
 40
0.6666666666666666
 40
0.6666666666666666
 40
0.6666666666666666
 40
0.6666666666666666
 40
0.75
 40
0.75
 40
0.75
 40
0.75
 40
0.8333333333333334
 40
0.8333333333333334
 40
0.8333333333333334
 40
0.8333333333333334
 40
1.0
 40
1.0
 40
1.0
 40
1.0
 10
-31.0788
 20
-28.7355
 30
0.0
 10
-31.0788
 20
-28.7355
 30
0.0
 10
-31.0788
 20
-28.252
 30
0.0
 10
-31.0788
 20
-28.252
 30
0.0
 10
-31.0788
 20
-28.252
 30
0.0
 10
-31.0788
 20
-28.252
 30
0.0
 10
-31.9551
 20
-28.252
 30
0.0
 10
-31.9551
 20
-28.252
 30
0.0
 10
-31.9551
 20
-28.252
 30
0.0
 10
-31.9551
 20
-28.252
 30
0.0
 10
-31.9551
 20
-28.0243
 30
0.0
 10
-31.9551
 20
-28.0243
 30
0.0
 10
-31.9551
 20
-28.0243
 30
0.0
 10
-31.9551
 20
-28.0243
 30
0.0
 10
-31.0331
 20
-26.7153
 30
0.0
 10
-31.0331
 20
-26.7153
 30
0.0
 10
-31.0331
 20
-26.7153
 30
0.0
 10
-31.0331
 20
-26.7153
 30
0.0
 10
-30.8304
 20
-26.7153
 30
0.0
 10
-30.8304
 20
-26.7153
 30
0.0
 10
-30.8304
 20
-26.7153
 30
0.0
 10
-30.8304
 20
-26.7153
 30
0.0
 10
-30.8304
 20
-28.0243
 30
0.0
 10
-30.8304
 20
-28.0243
 30
0.0
 10
-30.8304
 20
-28.0243
 30
0.0
 10
-30.8304
 20
-28.0243
 30
0.0
 10
-30.5576
 20
-28.0243
 30
0.0
 10
-30.5576
 20
-28.0243
 30
0.0
 10
-30.5576
 20
-28.0243
 30
0.0
 10
-30.5576
 20
-28.0243
 30
0.0
 10
-30.5576
 20
-28.252
 30
0.0
 10
-30.5576
 20
-28.252
 30
0.0
 10
-30.5576
 20
-28.252
 30
0.0
 10
-30.5576
 20
-28.252
 30
0.0
 10
-30.8304
 20
-28.252
 30
0.0
 10
-30.8304
 20
-28.252
 30
0.0
 10
-30.8304
 20
-28.252
 30
0.0
 10
-30.8304
 20
-28.252
 30
0.0
 10
-30.8304
 20
-28.7355
 30
0.0
 10
-30.8304
 20
-28.7355
 30
0.0
 10
-30.8304
 20
-28.7355
 30
0.0
 10
-30.8304
 20
-28.7355
 30
0.0
 10
-31.0788
 20
-28.7355
 30
0.0
 10
-31.0788
 20
-28.7355
 30
0.0
  0
SPLINE
  5
90
330
1F
100
AcDbEntity
  8
ILUSTRACE
 62
   250
100
AcDbSpline
210
0.0
220
0.0
230
1.0
 70
    11
 71
     3
 72
    16
 73
    12
 74
     0
 42
0.0000000001
 43
0.0000000001
 40
0.0
 40
0.0
 40
0.0
 40
0.0
 40
0.25
 40
0.25
 40
0.25
 40
0.25
 40
0.5
 40
0.5
 40
0.5
 40
0.5
 40
1.0
 40
1.0
 40
1.0
 40
1.0
 10
-31.0788
 20
-28.0243
 30
0.0
 10
-31.0788
 20
-28.0243
 30
0.0
 10
-31.0788
 20
-27.1137
 30
0.0
 10
-31.0788
 20
-27.1137
 30
0.0
 10
-31.0788
 20
-27.1137
 30
0.0
 10
-31.0788
 20
-27.1137
 30
0.0
 10
-31.7109
 20
-28.0243
 30
0.0
 10
-31.7109
 20
-28.0243
 30
0.0
 10
-31.7109
 20
-28.0243
 30
0.0
 10
-31.7109
 20
-28.0243
 30
0.0
 10
-31.0788
 20
-28.0243
 30
0.0
 10
-31.0788
 20
-28.0243
 30
0.0
  0
SPLINE
  5
91
330
1F
100
AcDbEntity
  8
ILUSTRACE
 62
   250
100
AcDbSpline
210
0.0
220
0.0
230
1.0
 70
    11
 71
     3
 72
    44
 73
    40
 74
     0
 42
0.0000000001
 43
0.0000000001
 40
0.0
 40
0.0
 40
0.0
 40
0.0
 40
0.0909090909090909
 40
0.0909090909090909
 40
0.0909090909090909
 40
0.0909090909090909
 40
0.1818181818181818
 40
0.1818181818181818
 40
0.1818181818181818
 40
0.1818181818181818
 40
0.2727272727272727
 40
0.2727272727272727
 40
0.2727272727272727
 40
0.2727272727272727
 40
0.3636363636363636
 40
0.3636363636363636
 40
0.3636363636363636
 40
0.3636363636363636
 40
0.4545454545454545
 40
0.4545454545454545
 40
0.4545454545454545
 40
0.4545454545454545
 40
0.5454545454545454
 40
0.5454545454545454
 40
0.5454545454545454
 40
0.5454545454545454
 40
0.6363636363636364
 40
0.6363636363636364
 40
0.6363636363636364
 40
0.6363636363636364
 40
0.7272727272727273
 40
0.7272727272727273
 40
0.7272727272727273
 40
0.7272727272727273
 40
0.8181818181818182
 40
0.8181818181818182
 40
0.8181818181818182
 40
0.8181818181818182
 40
1.0
 40
1.0
 40
1.0
 40
1.0
 10
-46.2055
 20
-25.5068
 30
0.0
 10
-46.3782
 20
-25.6437
 30
0.0
 10
-46.5804
 20
-25.7594
 30
0.0
 10
-46.8118
 20
-25.8539
 30
0.0
 10
-46.8118
 20
-25.8539
 30
0.0
 10
-47.0437
 20
-25.9484
 30
0.0
 10
-47.2831
 20
-25.996
 30
0.0
 10
-47.5315
 20
-25.996
 30
0.0
 10
-47.5315
 20
-25.996
 30
0.0
 10
-47.7502
 20
-25.996
 30
0.0
 10
-47.9595
 20
-25.9607
 30
0.0
 10
-48.1599
 20
-25.8897
 30
0.0
 10
-48.1599
 20
-25.8897
 30
0.0
 10
-48.3923
 20
-25.8069
 30
0.0
 10
-48.6237
 20
-25.6794
 30
0.0
 10
-48.8542
 20
-25.5068
 30
0.0
 10
-48.8542
 20
-25.5068
 30
0.0
 10
-48.8542
 20
-25.5068
 30
0.0
 10
-48.8542
 20
-25.329
 30
0.0
 10
-48.8542
 20
-25.329
 30
0.0
 10
-48.8542
 20
-25.329
 30
0.0
 10
-48.6632
 20
-25.44
 30
0.0
 10
-48.5268
 20
-25.5134
 30
0.0
 10
-48.4449
 20
-25.5491
 30
0.0
 10
-48.4449
 20
-25.5491
 30
0.0
 10
-48.3184
 20
-25.6056
 30
0.0
 10
-48.1858
 20
-25.6493
 30
0.0
 10
-48.048
 20
-25.6818
 30
0.0
 10
-48.048
 20
-25.6818
 30
0.0
 10
-47.8763
 20
-25.7213
 30
0.0
 10
-47.7036
 20
-25.741
 30
0.0
 10
-47.5301
 20
-25.741
 30
0.0
 10
-47.5301
 20
-25.741
 30
0.0
 10
-47.0879
 20
-25.741
 30
0.0
 10
-46.6467
 20
-25.6037
 30
0.0
 10
-46.2055
 20
-25.329
 30
0.0
 10
-46.2055
 20
-25.329
 30
0.0
 10
-46.2055
 20
-25.329
 30
0.0
 10
-46.2055
 20
-25.5068
 30
0.0
 10
-46.2055
 20
-25.5068
 30
0.0
  0
SPLINE
  5
92
330
1F
100
AcDbEntity
  8
ILUSTRACE
 62
   250
100
AcDbSpline
210
0.0
220
0.0
230
1.0
 70
    11
 71
     3
 72
    40
 73
    36
 74
     0
 42
0.0000000001
 43
0.0000000001
 40
0.0
 40
0.0
 40
0.0
 40
0.0
 40
0.1
 40
0.1
 40
0.1
 40
0.1
 40
0.2
 40
0.2
 40
0.2
 40
0.2
 40
0.3
 40
0.3
 40
0.3
 40
0.3
 40
0.4
 40
0.4
 40
0.4
 40
0.4
 40
0.5
 40
0.5
 40
0.5
 40
0.5
 40
0.6
 40
0.6
 40
0.6
 40
0.6
 40
0.7
 40
0.7
 40
0.7
 40
0.7
 40
0.8
 40
0.8
 40
0.8
 40
0.8
 40
1.0
 40
1.0
 40
1.0
 40
1.0
 10
-46.7996
 20
-24.1756
 30
0.0
 10
-46.7996
 20
-24.1756
 30
0.0
 10
-46.7996
 20
-24.4235
 30
0.0
 10
-46.7996
 20
-24.4235
 30
0.0
 10
-46.7996
 20
-24.4235
 30
0.0
 10
-46.7996
 20
-24.4235
 30
0.0
 10
-48.38
 20
-24.4235
 30
0.0
 10
-48.38
 20
-24.4235
 30
0.0
 10
-48.38
 20
-24.4235
 30
0.0
 10
-48.3231
 20
-24.4833
 30
0.0
 10
-48.2662
 20
-24.5613
 30
0.0
 10
-48.2093
 20
-24.6582
 30
0.0
 10
-48.2093
 20
-24.6582
 30
0.0
 10
-48.1524
 20
-24.7556
 30
0.0
 10
-48.1096
 20
-24.8426
 30
0.0
 10
-48.0813
 20
-24.9198
 30
0.0
 10
-48.0813
 20
-24.9198
 30
0.0
 10
-48.0813
 20
-24.9198
 30
0.0
 10
-48.3208
 20
-24.9198
 30
0.0
 10
-48.3208
 20
-24.9198
 30
0.0
 10
-48.3208
 20
-24.9198
 30
0.0
 10
-48.3861
 20
-24.781
 30
0.0
 10
-48.4652
 20
-24.6596
 30
0.0
 10
-48.5578
 20
-24.5557
 30
0.0
 10
-48.5578
 20
-24.5557
 30
0.0
 10
-48.651
 20
-24.4522
 30
0.0
 10
-48.7408
 20
-24.3784
 30
0.0
 10
-48.8283
 20
-24.3351
 30
0.0
 10
-48.8283
 20
-24.3351
 30
0.0
 10
-48.8283
 20
-24.3351
 30
0.0
 10
-48.8283
 20
-24.1756
 30
0.0
 10
-48.8283
 20
-24.1756
 30
0.0
 10
-48.8283
 20
-24.1756
 30
0.0
 10
-48.8283
 20
-24.1756
 30
0.0
 10
-46.7996
 20
-24.1756
 30
0.0
 10
-46.7996
 20
-24.1756
 30
0.0
  0
SPLINE
  5
93
330
1F
100
AcDbEntity
  8
ILUSTRACE
 62
   250
100
AcDbSpline
210
0.0
220
0.0
230
1.0
 70
    11
 71
     3
 72
    48
 73
    44
 74
     0
 42
0.0000000001
 43
0.0000000001
 40
0.0
 40
0.0
 40
0.0
 40
0.0
 40
0.0833333333333333
 40
0.0833333333333333
 40
0.0833333333333333
 40
0.0833333333333333
 40
0.1666666666666667
 40
0.1666666666666667
 40
0.1666666666666667
 40
0.1666666666666667
 40
0.25
 40
0.25
 40
0.25
 40
0.25
 40
0.3333333333333333
 40
0.3333333333333333
 40
0.3333333333333333
 40
0.3333333333333333
 40
0.4166666666666667
 40
0.4166666666666667
 40
0.4166666666666667
 40
0.4166666666666667
 40
0.5
 40
0.5
 40
0.5
 40
0.5
 40
0.5833333333333334
 40
0.5833333333333334
 40
0.5833333333333334
 40
0.5833333333333334
 40
0.6666666666666666
 40
0.6666666666666666
 40
0.6666666666666666
 40
0.6666666666666666
 40
0.75
 40
0.75
 40
0.75
 40
0.75
 40
0.8333333333333334
 40
0.8333333333333334
 40
0.8333333333333334
 40
0.8333333333333334
 40
1.0
 40
1.0
 40
1.0
 40
1.0
 10
-46.7996
 20
-22.7453
 30
0.0
 10
-46.7996
 20
-22.7453
 30
0.0
 10
-47.2831
 20
-22.7453
 30
0.0
 10
-47.2831
 20
-22.7453
 30
0.0
 10
-47.2831
 20
-22.7453
 30
0.0
 10
-47.2831
 20
-22.7453
 30
0.0
 10
-47.2831
 20
-23.6216
 30
0.0
 10
-47.2831
 20
-23.6216
 30
0.0
 10
-47.2831
 20
-23.6216
 30
0.0
 10
-47.2831
 20
-23.6216
 30
0.0
 10
-47.5108
 20
-23.6216
 30
0.0
 10
-47.5108
 20
-23.6216
 30
0.0
 10
-47.5108
 20
-23.6216
 30
0.0
 10
-47.5108
 20
-23.6216
 30
0.0
 10
-48.8198
 20
-22.6996
 30
0.0
 10
-48.8198
 20
-22.6996
 30
0.0
 10
-48.8198
 20
-22.6996
 30
0.0
 10
-48.8198
 20
-22.6996
 30
0.0
 10
-48.8198
 20
-22.4969
 30
0.0
 10
-48.8198
 20
-22.4969
 30
0.0
 10
-48.8198
 20
-22.4969
 30
0.0
 10
-48.8198
 20
-22.4969
 30
0.0
 10
-47.5108
 20
-22.4969
 30
0.0
 10
-47.5108
 20
-22.4969
 30
0.0
 10
-47.5108
 20
-22.4969
 30
0.0
 10
-47.5108
 20
-22.4969
 30
0.0
 10
-47.5108
 20
-22.2241
 30
0.0
 10
-47.5108
 20
-22.2241
 30
0.0
 10
-47.5108
 20
-22.2241
 30
0.0
 10
-47.5108
 20
-22.2241
 30
0.0
 10
-47.2831
 20
-22.2241
 30
0.0
 10
-47.2831
 20
-22.2241
 30
0.0
 10
-47.2831
 20
-22.2241
 30
0.0
 10
-47.2831
 20
-22.2241
 30
0.0
 10
-47.2831
 20
-22.4969
 30
0.0
 10
-47.2831
 20
-22.4969
 30
0.0
 10
-47.2831
 20
-22.4969
 30
0.0
 10
-47.2831
 20
-22.4969
 30
0.0
 10
-46.7996
 20
-22.4969
 30
0.0
 10
-46.7996
 20
-22.4969
 30
0.0
 10
-46.7996
 20
-22.4969
 30
0.0
 10
-46.7996
 20
-22.4969
 30
0.0
 10
-46.7996
 20
-22.7453
 30
0.0
 10
-46.7996
 20
-22.7453
 30
0.0
  0
SPLINE
  5
94
330
1F
100
AcDbEntity
  8
ILUSTRACE
 62
   250
100
AcDbSpline
210
0.0
220
0.0
230
1.0
 70
    11
 71
     3
 72
    16
 73
    12
 74
     0
 42
0.0000000001
 43
0.0000000001
 40
0.0
 40
0.0
 40
0.0
 40
0.0
 40
0.25
 40
0.25
 40
0.25
 40
0.25
 40
0.5
 40
0.5
 40
0.5
 40
0.5
 40
1.0
 40
1.0
 40
1.0
 40
1.0
 10
-47.5108
 20
-22.7453
 30
0.0
 10
-47.5108
 20
-22.7453
 30
0.0
 10
-48.4214
 20
-22.7453
 30
0.0
 10
-48.4214
 20
-22.7453
 30
0.0
 10
-48.4214
 20
-22.7453
 30
0.0
 10
-48.4214
 20
-22.7453
 30
0.0
 10
-47.5108
 20
-23.3774
 30
0.0
 10
-47.5108
 20
-23.3774
 30
0.0
 10
-47.5108
 20
-23.3774
 30
0.0
 10
-47.5108
 20
-23.3774
 30
0.0
 10
-47.5108
 20
-22.7453
 30
0.0
 10
-47.5108
 20
-22.7453
 30
0.0
  0
SPLINE
  5
95
330
1F
100
AcDbEntity
  8
ILUSTRACE
 62
   250
100
AcDbSpline
210
0.0
220
0.0
230
1.0
 70
    11
 71
     3
 72
    52
 73
    48
 74
     0
 42
0.0000000001
 43
0.0000000001
 40
0.0
 40
0.0
 40
0.0
 40
0.0
 40
0.0769230769230769
 40
0.0769230769230769
 40
0.0769230769230769
 40
0.0769230769230769
 40
0.1538461538461539
 40
0.1538461538461539
 40
0.1538461538461539
 40
0.1538461538461539
 40
0.2307692307692308
 40
0.2307692307692308
 40
0.2307692307692308
 40
0.2307692307692308
 40
0.3076923076923077
 40
0.3076923076923077
 40
0.3076923076923077
 40
0.3076923076923077
 40
0.3846153846153846
 40
0.3846153846153846
 40
0.3846153846153846
 40
0.3846153846153846
 40
0.4615384615384616
 40
0.4615384615384616
 40
0.4615384615384616
 40
0.4615384615384616
 40
0.5384615384615384
 40
0.5384615384615384
 40
0.5384615384615384
 40
0.5384615384615384
 40
0.6153846153846154
 40
0.6153846153846154
 40
0.6153846153846154
 40
0.6153846153846154
 40
0.6923076923076923
 40
0.6923076923076923
 40
0.6923076923076923
 40
0.6923076923076923
 40
0.7692307692307693
 40
0.7692307692307693
 40
0.7692307692307693
 40
0.7692307692307693
 40
0.8461538461538461
 40
0.8461538461538461
 40
0.8461538461538461
 40
0.8461538461538461
 40
1.0
 40
1.0
 40
1.0
 40
1.0
 10
-47.7958
 20
-21.9706
 30
0.0
 10
-48.0348
 20
-21.9706
 30
0.0
 10
-48.2272
 20
-21.9461
 30
0.0
 10
-48.3725
 20
-21.8967
 30
0.0
 10
-48.3725
 20
-21.8967
 30
0.0
 10
-48.5183
 20
-21.8478
 30
0.0
 10
-48.6307
 20
-21.7744
 30
0.0
 10
-48.7098
 20
-21.6775
 30
0.0
 10
-48.7098
 20
-21.6775
 30
0.0
 10
-48.7888
 20
-21.5806
 30
0.0
 10
-48.8283
 20
-21.4588
 30
0.0
 10
-48.8283
 20
-21.3121
 30
0.0
 10
-48.8283
 20
-21.3121
 30
0.0
 10
-48.8283
 20
-21.2034
 30
0.0
 10
-48.8062
 20
-21.1084
 30
0.0
 10
-48.7624
 20
-21.0266
 30
0.0
 10
-48.7624
 20
-21.0266
 30
0.0
 10
-48.7192
 20
-20.9447
 30
0.0
 10
-48.6561
 20
-20.8774
 30
0.0
 10
-48.5738
 20
-20.8238
 30
0.0
 10
-48.5738
 20
-20.8238
 30
0.0
 10
-48.4915
 20
-20.7707
 30
0.0
 10
-48.3913
 20
-20.7288
 30
0.0
 10
-48.2733
 20
-20.6987
 30
0.0
 10
-48.2733
 20
-20.6987
 30
0.0
 10
-48.1552
 20
-20.6681
 30
0.0
 10
-47.9962
 20
-20.6531
 30
0.0
 10
-47.7958
 20
-20.6531
 30
0.0
 10
-47.7958
 20
-20.6531
 30
0.0
 10
-47.5588
 20
-20.6531
 30
0.0
 10
-47.3678
 20
-20.6775
 30
0.0
 10
-47.222
 20
-20.726
 30
0.0
 10
-47.222
 20
-20.726
 30
0.0
 10
-47.0762
 20
-20.7749
 30
0.0
 10
-46.9638
 20
-20.8478
 30
0.0
 10
-46.8843
 20
-20.9447
 30
0.0
 10
-46.8843
 20
-20.9447
 30
0.0
 10
-46.8048
 20
-21.0416
 30
0.0
 10
-46.7653
 20
-21.1639
 30
0.0
 10
-46.7653
 20
-21.3121
 30
0.0
 10
-46.7653
 20
-21.3121
 30
0.0
 10
-46.7653
 20
-21.5068
 30
0.0
 10
-46.8349
 20
-21.6597
 30
0.0
 10
-46.9746
 20
-21.7707
 30
0.0
 10
-46.9746
 20
-21.7707
 30
0.0
 10
-47.1425
 20
-21.9038
 30
0.0
 10
-47.4167
 20
-21.9706
 30
0.0
 10
-47.7958
 20
-21.9706
 30
0.0
  0
SPLINE
  5
96
330
1F
100
AcDbEntity
  8
ILUSTRACE
 62
   250
100
AcDbSpline
210
0.0
220
0.0
230
1.0
 70
    11
 71
     3
 72
    36
 73
    32
 74
     0
 42
0.0000000001
 43
0.0000000001
 40
0.0
 40
0.0
 40
0.0
 40
0.0
 40
0.1111111111111111
 40
0.1111111111111111
 40
0.1111111111111111
 40
0.1111111111111111
 40
0.2222222222222222
 40
0.2222222222222222
 40
0.2222222222222222
 40
0.2222222222222222
 40
0.3333333333333333
 40
0.3333333333333333
 40
0.3333333333333333
 40
0.3333333333333333
 40
0.4444444444444444
 40
0.4444444444444444
 40
0.4444444444444444
 40
0.4444444444444444
 40
0.5555555555555556
 40
0.5555555555555556
 40
0.5555555555555556
 40
0.5555555555555556
 40
0.6666666666666666
 40
0.6666666666666666
 40
0.6666666666666666
 40
0.6666666666666666
 40
0.7777777777777778
 40
0.7777777777777778
 40
0.7777777777777778
 40
0.7777777777777778
 40
1.0
 40
1.0
 40
1.0
 40
1.0
 10
-47.7958
 20
-21.7156
 30
0.0
 10
-47.4642
 20
-21.7156
 30
0.0
 10
-47.2436
 20
-21.6766
 30
0.0
 10
-47.1336
 20
-21.599
 30
0.0
 10
-47.1336
 20
-21.599
 30
0.0
 10
-47.024
 20
-21.5214
 30
0.0
 10
-46.9689
 20
-21.4259
 30
0.0
 10
-46.9689
 20
-21.3121
 30
0.0
 10
-46.9689
 20
-21.3121
 30
0.0
 10
-46.9689
 20
-21.1978
 30
0.0
 10
-47.0244
 20
-21.1023
 30
0.0
 10
-47.1345
 20
-21.0247
 30
0.0
 10
-47.1345
 20
-21.0247
 30
0.0
 10
-47.2446
 20
-20.9471
 30
0.0
 10
-47.4652
 20
-20.908
 30
0.0
 10
-47.7958
 20
-20.908
 30
0.0
 10
-47.7958
 20
-20.908
 30
0.0
 10
-48.1284
 20
-20.908
 30
0.0
 10
-48.3495
 20
-20.9471
 30
0.0
 10
-48.4586
 20
-21.0247
 30
0.0
 10
-48.4586
 20
-21.0247
 30
0.0
 10
-48.5682
 20
-21.1023
 30
0.0
 10
-48.6227
 20
-21.1987
 30
0.0
 10
-48.6227
 20
-21.3144
 30
0.0
 10
-48.6227
 20
-21.3144
 30
0.0
 10
-48.6227
 20
-21.4287
 30
0.0
 10
-48.5743
 20
-21.5195
 30
0.0
 10
-48.4779
 20
-21.5877
 30
0.0
 10
-48.4779
 20
-21.5877
 30
0.0
 10
-48.3551
 20
-21.6728
 30
0.0
 10
-48.1274
 20
-21.7156
 30
0.0
 10
-47.7958
 20
-21.7156
 30
0.0
  0
SPLINE
  5
97
330
1F
100
AcDbEntity
  8
ILUSTRACE
 62
   250
100
AcDbSpline
210
0.0
220
0.0
230
1.0
 70
    11
 71
     3
 72
    44
 73
    40
 74
     0
 42
0.0000000001
 43
0.0000000001
 40
0.0
 40
0.0
 40
0.0
 40
0.0
 40
0.0909090909090909
 40
0.0909090909090909
 40
0.0909090909090909
 40
0.0909090909090909
 40
0.1818181818181818
 40
0.1818181818181818
 40
0.1818181818181818
 40
0.1818181818181818
 40
0.2727272727272727
 40
0.2727272727272727
 40
0.2727272727272727
 40
0.2727272727272727
 40
0.3636363636363636
 40
0.3636363636363636
 40
0.3636363636363636
 40
0.3636363636363636
 40
0.4545454545454545
 40
0.4545454545454545
 40
0.4545454545454545
 40
0.4545454545454545
 40
0.5454545454545454
 40
0.5454545454545454
 40
0.5454545454545454
 40
0.5454545454545454
 40
0.6363636363636364
 40
0.6363636363636364
 40
0.6363636363636364
 40
0.6363636363636364
 40
0.7272727272727273
 40
0.7272727272727273
 40
0.7272727272727273
 40
0.7272727272727273
 40
0.8181818181818182
 40
0.8181818181818182
 40
0.8181818181818182
 40
0.8181818181818182
 40
1.0
 40
1.0
 40
1.0
 40
1.0
 10
-46.2055
 20
-20.1696
 30
0.0
 10
-46.2055
 20
-20.1696
 30
0.0
 10
-46.2055
 20
-20.3474
 30
0.0
 10
-46.2055
 20
-20.3474
 30
0.0
 10
-46.2055
 20
-20.3474
 30
0.0
 10
-46.6467
 20
-20.0727
 30
0.0
 10
-47.0879
 20
-19.9353
 30
0.0
 10
-47.5301
 20
-19.9353
 30
0.0
 10
-47.5301
 20
-19.9353
 30
0.0
 10
-47.7027
 20
-19.9353
 30
0.0
 10
-47.8739
 20
-19.9551
 30
0.0
 10
-48.0442
 20
-19.9946
 30
0.0
 10
-48.0442
 20
-19.9946
 30
0.0
 10
-48.1815
 20
-20.0256
 30
0.0
 10
-48.3142
 20
-20.0694
 30
0.0
 10
-48.4407
 20
-20.1253
 30
0.0
 10
-48.4407
 20
-20.1253
 30
0.0
 10
-48.5235
 20
-20.1611
 30
0.0
 10
-48.6613
 20
-20.2349
 30
0.0
 10
-48.8542
 20
-20.3474
 30
0.0
 10
-48.8542
 20
-20.3474
 30
0.0
 10
-48.8542
 20
-20.3474
 30
0.0
 10
-48.8542
 20
-20.1696
 30
0.0
 10
-48.8542
 20
-20.1696
 30
0.0
 10
-48.8542
 20
-20.1696
 30
0.0
 10
-48.6237
 20
-19.9969
 30
0.0
 10
-48.3923
 20
-19.869
 30
0.0
 10
-48.1599
 20
-19.7862
 30
0.0
 10
-48.1599
 20
-19.7862
 30
0.0
 10
-47.9595
 20
-19.7157
 30
0.0
 10
-47.7502
 20
-19.6804
 30
0.0
 10
-47.5315
 20
-19.6804
 30
0.0
 10
-47.5315
 20
-19.6804
 30
0.0
 10
-47.2831
 20
-19.6804
 30
0.0
 10
-47.0437
 20
-19.7279
 30
0.0
 10
-46.8118
 20
-19.8229
 30
0.0
 10
-46.8118
 20
-19.8229
 30
0.0
 10
-46.5804
 20
-19.9179
 30
0.0
 10
-46.3782
 20
-20.0336
 30
0.0
 10
-46.2055
 20
-20.1696
 30
0.0
  0
SPLINE
  5
98
330
1F
100
AcDbEntity
  8
ILUSTRACE
 62
   250
100
AcDbSpline
210
0.0
220
0.0
230
1.0
 70
    11
 71
     3
 72
   120
 73
   116
 74
     0
 42
0.0000000001
 43
0.0000000001
 40
0.0
 40
0.0
 40
0.0
 40
0.0
 40
0.0333333333333333
 40
0.0333333333333333
 40
0.0333333333333333
 40
0.0333333333333333
 40
0.0666666666666667
 40
0.0666666666666667
 40
0.0666666666666667
 40
0.0666666666666667
 40
0.1
 40
0.1
 40
0.1
 40
0.1
 40
0.1333333333333333
 40
0.1333333333333333
 40
0.1333333333333333
 40
0.1333333333333333
 40
0.1666666666666667
 40
0.1666666666666667
 40
0.1666666666666667
 40
0.1666666666666667
 40
0.2
 40
0.2
 40
0.2
 40
0.2
 40
0.2333333333333333
 40
0.2333333333333333
 40
0.2333333333333333
 40
0.2333333333333333
 40
0.2666666666666667
 40
0.2666666666666667
 40
0.2666666666666667
 40
0.2666666666666667
 40
0.3
 40
0.3
 40
0.3
 40
0.3
 40
0.3333333333333333
 40
0.3333333333333333
 40
0.3333333333333333
 40
0.3333333333333333
 40
0.3666666666666666
 40
0.3666666666666666
 40
0.3666666666666666
 40
0.3666666666666666
 40
0.4
 40
0.4
 40
0.4
 40
0.4
 40
0.4333333333333333
 40
0.4333333333333333
 40
0.4333333333333333
 40
0.4333333333333333
 40
0.4666666666666667
 40
0.4666666666666667
 40
0.4666666666666667
 40
0.4666666666666667
 40
0.5
 40
0.5
 40
0.5
 40
0.5
 40
0.5333333333333333
 40
0.5333333333333333
 40
0.5333333333333333
 40
0.5333333333333333
 40
0.5666666666666667
 40
0.5666666666666667
 40
0.5666666666666667
 40
0.5666666666666667
 40
0.6
 40
0.6
 40
0.6
 40
0.6
 40
0.6333333333333333
 40
0.6333333333333333
 40
0.6333333333333333
 40
0.6333333333333333
 40
0.6666666666666666
 40
0.6666666666666666
 40
0.6666666666666666
 40
0.6666666666666666
 40
0.7
 40
0.7
 40
0.7
 40
0.7
 40
0.7333333333333333
 40
0.7333333333333333
 40
0.7333333333333333
 40
0.7333333333333333
 40
0.7666666666666667
 40
0.7666666666666667
 40
0.7666666666666667
 40
0.7666666666666667
 40
0.8
 40
0.8
 40
0.8
 40
0.8
 40
0.8333333333333334
 40
0.8333333333333334
 40
0.8333333333333334
 40
0.8333333333333334
 40
0.8666666666666667
 40
0.8666666666666667
 40
0.8666666666666667
 40
0.8666666666666667
 40
0.9
 40
0.9
 40
0.9
 40
0.9
 40
0.9333333333333333
 40
0.9333333333333333
 40
0.9333333333333333
 40
0.9333333333333333
 40
1.0
 40
1.0
 40
1.0
 40
1.0
 10
-36.1938
 20
39.5369
 30
0.0
 10
-36.1938
 20
39.5369
 30
0.0
 10
-36.1938
 20
39.7735
 30
0.0
 10
-36.1938
 20
39.7735
 30
0.0
 10
-36.1938
 20
39.7735
 30
0.0
 10
-36.1938
 20
39.7735
 30
0.0
 10
-35.3382
 20
39.7749
 30
0.0
 10
-35.3382
 20
39.7749
 30
0.0
 10
-35.3382
 20
39.7749
 30
0.0
 10
-35.3382
 20
39.7749
 30
0.0
 10
-35.3382
 20
39.0256
 30
0.0
 10
-35.3382
 20
39.0256
 30
0.0
 10
-35.3382
 20
39.0256
 30
0.0
 10
-35.4694
 20
38.9207
 30
0.0
 10
-35.6049
 20
38.8421
 30
0.0
 10
-35.7446
 20
38.789
 30
0.0
 10
-35.7446
 20
38.789
 30
0.0
 10
-35.8843
 20
38.7363
 30
0.0
 10
-36.0277
 20
38.71
 30
0.0
 10
-36.1745
 20
38.71
 30
0.0
 10
-36.1745
 20
38.71
 30
0.0
 10
-36.373
 20
38.71
 30
0.0
 10
-36.5536
 20
38.7523
 30
0.0
 10
-36.7154
 20
38.8374
 30
0.0
 10
-36.7154
 20
38.8374
 30
0.0
 10
-36.8777
 20
38.9221
 30
0.0
 10
-37.0
 20
39.0453
 30
0.0
 10
-37.0828
 20
39.2057
 30
0.0
 10
-37.0828
 20
39.2057
 30
0.0
 10
-37.1656
 20
39.3666
 30
0.0
 10
-37.207
 20
39.5463
 30
0.0
 10
-37.207
 20
39.7448
 30
0.0
 10
-37.207
 20
39.7448
 30
0.0
 10
-37.207
 20
39.9414
 30
0.0
 10
-37.1656
 20
40.1248
 30
0.0
 10
-37.0832
 20
40.2951
 30
0.0
 10
-37.0832
 20
40.2951
 30
0.0
 10
-37.0014
 20
40.4658
 30
0.0
 10
-36.8829
 20
40.5924
 30
0.0
 10
-36.7286
 20
40.6752
 30
0.0
 10
-36.7286
 20
40.6752
 30
0.0
 10
-36.5743
 20
40.7575
 30
0.0
 10
-36.3965
 20
40.7989
 30
0.0
 10
-36.1952
 20
40.7989
 30
0.0
 10
-36.1952
 20
40.7989
 30
0.0
 10
-36.0494
 20
40.7989
 30
0.0
 10
-35.9172
 20
40.7753
 30
0.0
 10
-35.7991
 20
40.7278
 30
0.0
 10
-35.7991
 20
40.7278
 30
0.0
 10
-35.6811
 20
40.6808
 30
0.0
 10
-35.5884
 20
40.6149
 30
0.0
 10
-35.5216
 20
40.5303
 30
0.0
 10
-35.5216
 20
40.5303
 30
0.0
 10
-35.4544
 20
40.4456
 30
0.0
 10
-35.4036
 20
40.3356
 30
0.0
 10
-35.3683
 20
40.1996
 30
0.0
 10
-35.3683
 20
40.1996
 30
0.0
 10
-35.3683
 20
40.1996
 30
0.0
 10
-35.6096
 20
40.1333
 30
0.0
 10
-35.6096
 20
40.1333
 30
0.0
 10
-35.6096
 20
40.1333
 30
0.0
 10
-35.6402
 20
40.2363
 30
0.0
 10
-35.6778
 20
40.3172
 30
0.0
 10
-35.7225
 20
40.376
 30
0.0
 10
-35.7225
 20
40.376
 30
0.0
 10
-35.7676
 20
40.4348
 30
0.0
 10
-35.8321
 20
40.4818
 30
0.0
 10
-35.9158
 20
40.5171
 30
0.0
 10
-35.9158
 20
40.5171
 30
0.0
 10
-35.9991
 20
40.5524
 30
0.0
 10
-36.0922
 20
40.5703
 30
0.0
 10
-36.1938
 20
40.5703
 30
0.0
 10
-36.1938
 20
40.5703
 30
0.0
 10
-36.3161
 20
40.5703
 30
0.0
 10
-36.4219
 20
40.5514
 30
0.0
 10
-36.5108
 20
40.5143
 30
0.0
 10
-36.5108
 20
40.5143
 30
0.0
 10
-36.6002
 20
40.4771
 30
0.0
 10
-36.6717
 20
40.4282
 30
0.0
 10
-36.7267
 20
40.3675
 30
0.0
 10
-36.7267
 20
40.3675
 30
0.0
 10
-36.7813
 20
40.3069
 30
0.0
 10
-36.8236
 20
40.2405
 30
0.0
 10
-36.8542
 20
40.1676
 30
0.0
 10
-36.8542
 20
40.1676
 30
0.0
 10
-36.9054
 20
40.043
 30
0.0
 10
-36.9313
 20
39.9075
 30
0.0
 10
-36.9313
 20
39.7612
 30
0.0
 10
-36.9313
 20
39.7612
 30
0.0
 10
-36.9313
 20
39.5811
 30
0.0
 10
-36.9003
 20
39.4306
 30
0.0
 10
-36.8382
 20
39.3092
 30
0.0
 10
-36.8382
 20
39.3092
 30
0.0
 10
-36.7761
 20
39.1879
 30
0.0
 10
-36.6858
 20
39.098
 30
0.0
 10
-36.5673
 20
39.0392
 30
0.0
 10
-36.5673
 20
39.0392
 30
0.0
 10
-36.4487
 20
38.9804
 30
0.0
 10
-36.3231
 20
38.9508
 30
0.0
 10
-36.19
 20
38.9508
 30
0.0
 10
-36.19
 20
38.9508
 30
0.0
 10
-36.0738
 20
38.9508
 30
0.0
 10
-35.961
 20
38.9734
 30
0.0
 10
-35.8509
 20
39.0181
 30
0.0
 10
-35.8509
 20
39.0181
 30
0.0
 10
-35.7403
 20
39.0623
 30
0.0
 10
-35.6571
 20
39.1098
 30
0.0
 10
-35.6002
 20
39.1606
 30
0.0
 10
-35.6002
 20
39.1606
 30
0.0
 10
-35.6002
 20
39.1606
 30
0.0
 10
-35.6002
 20
39.5369
 30
0.0
 10
-35.6002
 20
39.5369
 30
0.0
 10
-35.6002
 20
39.5369
 30
0.0
 10
-35.6002
 20
39.5369
 30
0.0
 10
-36.1938
 20
39.5369
 30
0.0
 10
-36.1938
 20
39.5369
 30
0.0
  0
SPLINE
  5
99
330
1F
100
AcDbEntity
  8
ILUSTRACE
 62
   250
100
AcDbSpline
210
0.0
220
0.0
230
1.0
 70
    11
 71
     3
 72
    92
 73
    88
 74
     0
 42
0.0000000001
 43
0.0000000001
 40
0.0
 40
0.0
 40
0.0
 40
0.0
 40
0.0434782608695652
 40
0.0434782608695652
 40
0.0434782608695652
 40
0.0434782608695652
 40
0.0869565217391304
 40
0.0869565217391304
 40
0.0869565217391304
 40
0.0869565217391304
 40
0.1304347826086956
 40
0.1304347826086956
 40
0.1304347826086956
 40
0.1304347826086956
 40
0.1739130434782609
 40
0.1739130434782609
 40
0.1739130434782609
 40
0.1739130434782609
 40
0.2173913043478261
 40
0.2173913043478261
 40
0.2173913043478261
 40
0.2173913043478261
 40
0.2608695652173913
 40
0.2608695652173913
 40
0.2608695652173913
 40
0.2608695652173913
 40
0.3043478260869565
 40
0.3043478260869565
 40
0.3043478260869565
 40
0.3043478260869565
 40
0.3478260869565217
 40
0.3478260869565217
 40
0.3478260869565217
 40
0.3478260869565217
 40
0.391304347826087
 40
0.391304347826087
 40
0.391304347826087
 40
0.391304347826087
 40
0.4347826086956522
 40
0.4347826086956522
 40
0.4347826086956522
 40
0.4347826086956522
 40
0.4782608695652174
 40
0.4782608695652174
 40
0.4782608695652174
 40
0.4782608695652174
 40
0.5217391304347826
 40
0.5217391304347826
 40
0.5217391304347826
 40
0.5217391304347826
 40
0.5652173913043478
 40
0.5652173913043478
 40
0.5652173913043478
 40
0.5652173913043478
 40
0.6086956521739131
 40
0.6086956521739131
 40
0.6086956521739131
 40
0.6086956521739131
 40
0.6521739130434783
 40
0.6521739130434783
 40
0.6521739130434783
 40
0.6521739130434783
 40
0.6956521739130435
 40
0.6956521739130435
 40
0.6956521739130435
 40
0.6956521739130435
 40
0.7391304347826086
 40
0.7391304347826086
 40
0.7391304347826086
 40
0.7391304347826086
 40
0.782608695652174
 40
0.782608695652174
 40
0.782608695652174
 40
0.782608695652174
 40
0.8260869565217391
 40
0.8260869565217391
 40
0.8260869565217391
 40
0.8260869565217391
 40
0.8695652173913043
 40
0.8695652173913043
 40
0.8695652173913043
 40
0.8695652173913043
 40
0.9130434782608695
 40
0.9130434782608695
 40
0.9130434782608695
 40
0.9130434782608695
 40
1.0
 40
1.0
 40
1.0
 40
1.0
 10
-34.2606
 20
39.2735
 30
0.0
 10
-34.2606
 20
39.2735
 30
0.0
 10
-34.0
 20
39.2956
 30
0.0
 10
-34.0
 20
39.2956
 30
0.0
 10
-34.0
 20
39.2956
 30
0.0
 10
-33.9807
 20
39.1686
 30
0.0
 10
-33.936
 20
39.0736
 30
0.0
 10
-33.8659
 20
39.0096
 30
0.0
 10
-33.8659
 20
39.0096
 30
0.0
 10
-33.7954
 20
38.9456
 30
0.0
 10
-33.7107
 20
38.9136
 30
0.0
 10
-33.6115
 20
38.9136
 30
0.0
 10
-33.6115
 20
38.9136
 30
0.0
 10
-33.492
 20
38.9136
 30
0.0
 10
-33.3909
 20
38.9588
 30
0.0
 10
-33.3086
 20
39.0486
 30
0.0
 10
-33.3086
 20
39.0486
 30
0.0
 10
-33.2258
 20
39.1389
 30
0.0
 10
-33.1844
 20
39.2584
 30
0.0
 10
-33.1844
 20
39.407
 30
0.0
 10
-33.1844
 20
39.407
 30
0.0
 10
-33.1844
 20
39.5486
 30
0.0
 10
-33.2239
 20
39.6601
 30
0.0
 10
-33.3034
 20
39.7419
 30
0.0
 10
-33.3034
 20
39.7419
 30
0.0
 10
-33.3829
 20
39.8238
 30
0.0
 10
-33.4868
 20
39.8647
 30
0.0
 10
-33.6157
 20
39.8647
 30
0.0
 10
-33.6157
 20
39.8647
 30
0.0
 10
-33.6957
 20
39.8647
 30
0.0
 10
-33.7676
 20
39.8464
 30
0.0
 10
-33.8321
 20
39.8102
 30
0.0
 10
-33.8321
 20
39.8102
 30
0.0
 10
-33.8965
 20
39.7739
 30
0.0
 10
-33.9468
 20
39.7269
 30
0.0
 10
-33.9835
 20
39.669
 30
0.0
 10
-33.9835
 20
39.669
 30
0.0
 10
-33.9835
 20
39.669
 30
0.0
 10
-34.2164
 20
39.6991
 30
0.0
 10
-34.2164
 20
39.6991
 30
0.0
 10
-34.2164
 20
39.6991
 30
0.0
 10
-34.2164
 20
39.6991
 30
0.0
 10
-34.0207
 20
40.7368
 30
0.0
 10
-34.0207
 20
40.7368
 30
0.0
 10
-34.0207
 20
40.7368
 30
0.0
 10
-34.0207
 20
40.7368
 30
0.0
 10
-33.016
 20
40.7368
 30
0.0
 10
-33.016
 20
40.7368
 30
0.0
 10
-33.016
 20
40.7368
 30
0.0
 10
-33.016
 20
40.7368
 30
0.0
 10
-33.016
 20
40.4997
 30
0.0
 10
-33.016
 20
40.4997
 30
0.0
 10
-33.016
 20
40.4997
 30
0.0
 10
-33.016
 20
40.4997
 30
0.0
 10
-33.8222
 20
40.4997
 30
0.0
 10
-33.8222
 20
40.4997
 30
0.0
 10
-33.8222
 20
40.4997
 30
0.0
 10
-33.8222
 20
40.4997
 30
0.0
 10
-33.9313
 20
39.9569
 30
0.0
 10
-33.9313
 20
39.9569
 30
0.0
 10
-33.9313
 20
39.9569
 30
0.0
 10
-33.81
 20
40.0416
 30
0.0
 10
-33.6825
 20
40.0839
 30
0.0
 10
-33.5494
 20
40.0839
 30
0.0
 10
-33.5494
 20
40.0839
 30
0.0
 10
-33.373
 20
40.0839
 30
0.0
 10
-33.2244
 20
40.0228
 30
0.0
 10
-33.103
 20
39.9005
 30
0.0
 10
-33.103
 20
39.9005
 30
0.0
 10
-32.9817
 20
39.7782
 30
0.0
 10
-32.921
 20
39.6211
 30
0.0
 10
-32.921
 20
39.4292
 30
0.0
 10
-32.921
 20
39.4292
 30
0.0
 10
-32.921
 20
39.2462
 30
0.0
 10
-32.9746
 20
39.0881
 30
0.0
 10
-33.0809
 20
38.955
 30
0.0
 10
-33.0809
 20
38.955
 30
0.0
 10
-33.2107
 20
38.7918
 30
0.0
 10
-33.3876
 20
38.71
 30
0.0
 10
-33.6115
 20
38.71
 30
0.0
 10
-33.6115
 20
38.71
 30
0.0
 10
-33.7954
 20
38.71
 30
0.0
 10
-33.9454
 20
38.7612
 30
0.0
 10
-34.0616
 20
38.8642
 30
0.0
 10
-34.0616
 20
38.8642
 30
0.0
 10
-34.1778
 20
38.9673
 30
0.0
 10
-34.2441
 20
39.1037
 30
0.0
 10
-34.2606
 20
39.2735
 30
0.0
  0
SPLINE
  5
9A
330
1F
100
AcDbEntity
  8
ILUSTRACE
 62
   250
100
AcDbSpline
210
0.0
220
0.0
230
1.0
 70
    11
 71
     3
 72
    20
 73
    16
 74
     0
 42
0.0000000001
 43
0.0000000001
 40
0.0
 40
0.0
 40
0.0
 40
0.0
 40
0.2
 40
0.2
 40
0.2
 40
0.2
 40
0.4
 40
0.4
 40
0.4
 40
0.4
 40
0.6
 40
0.6
 40
0.6
 40
0.6
 40
1.0
 40
1.0
 40
1.0
 40
1.0
 10
-32.8081
 20
38.71
 30
0.0
 10
-32.8081
 20
38.71
 30
0.0
 10
-32.2225
 20
40.7989
 30
0.0
 10
-32.2225
 20
40.7989
 30
0.0
 10
-32.2225
 20
40.7989
 30
0.0
 10
-32.2225
 20
40.7989
 30
0.0
 10
-32.024
 20
40.7989
 30
0.0
 10
-32.024
 20
40.7989
 30
0.0
 10
-32.024
 20
40.7989
 30
0.0
 10
-32.024
 20
40.7989
 30
0.0
 10
-32.6082
 20
38.71
 30
0.0
 10
-32.6082
 20
38.71
 30
0.0
 10
-32.6082
 20
38.71
 30
0.0
 10
-32.6082
 20
38.71
 30
0.0
 10
-32.8081
 20
38.71
 30
0.0
 10
-32.8081
 20
38.71
 30
0.0
  0
SPLINE
  5
9B
330
1F
100
AcDbEntity
  8
ILUSTRACE
 62
   250
100
AcDbSpline
210
0.0
220
0.0
230
1.0
 70
    11
 71
     3
 72
    48
 73
    44
 74
     0
 42
0.0000000001
 43
0.0000000001
 40
0.0
 40
0.0
 40
0.0
 40
0.0
 40
0.0833333333333333
 40
0.0833333333333333
 40
0.0833333333333333
 40
0.0833333333333333
 40
0.1666666666666667
 40
0.1666666666666667
 40
0.1666666666666667
 40
0.1666666666666667
 40
0.25
 40
0.25
 40
0.25
 40
0.25
 40
0.3333333333333333
 40
0.3333333333333333
 40
0.3333333333333333
 40
0.3333333333333333
 40
0.4166666666666667
 40
0.4166666666666667
 40
0.4166666666666667
 40
0.4166666666666667
 40
0.5
 40
0.5
 40
0.5
 40
0.5
 40
0.5833333333333334
 40
0.5833333333333334
 40
0.5833333333333334
 40
0.5833333333333334
 40
0.6666666666666666
 40
0.6666666666666666
 40
0.6666666666666666
 40
0.6666666666666666
 40
0.75
 40
0.75
 40
0.75
 40
0.75
 40
0.8333333333333334
 40
0.8333333333333334
 40
0.8333333333333334
 40
0.8333333333333334
 40
1.0
 40
1.0
 40
1.0
 40
1.0
 10
-31.112
 20
38.7443
 30
0.0
 10
-31.112
 20
38.7443
 30
0.0
 10
-31.112
 20
39.2278
 30
0.0
 10
-31.112
 20
39.2278
 30
0.0
 10
-31.112
 20
39.2278
 30
0.0
 10
-31.112
 20
39.2278
 30
0.0
 10
-31.9883
 20
39.2278
 30
0.0
 10
-31.9883
 20
39.2278
 30
0.0
 10
-31.9883
 20
39.2278
 30
0.0
 10
-31.9883
 20
39.2278
 30
0.0
 10
-31.9883
 20
39.4555
 30
0.0
 10
-31.9883
 20
39.4555
 30
0.0
 10
-31.9883
 20
39.4555
 30
0.0
 10
-31.9883
 20
39.4555
 30
0.0
 10
-31.0663
 20
40.7645
 30
0.0
 10
-31.0663
 20
40.7645
 30
0.0
 10
-31.0663
 20
40.7645
 30
0.0
 10
-31.0663
 20
40.7645
 30
0.0
 10
-30.8636
 20
40.7645
 30
0.0
 10
-30.8636
 20
40.7645
 30
0.0
 10
-30.8636
 20
40.7645
 30
0.0
 10
-30.8636
 20
40.7645
 30
0.0
 10
-30.8636
 20
39.4555
 30
0.0
 10
-30.8636
 20
39.4555
 30
0.0
 10
-30.8636
 20
39.4555
 30
0.0
 10
-30.8636
 20
39.4555
 30
0.0
 10
-30.5908
 20
39.4555
 30
0.0
 10
-30.5908
 20
39.4555
 30
0.0
 10
-30.5908
 20
39.4555
 30
0.0
 10
-30.5908
 20
39.4555
 30
0.0
 10
-30.5908
 20
39.2278
 30
0.0
 10
-30.5908
 20
39.2278
 30
0.0
 10
-30.5908
 20
39.2278
 30
0.0
 10
-30.5908
 20
39.2278
 30
0.0
 10
-30.8636
 20
39.2278
 30
0.0
 10
-30.8636
 20
39.2278
 30
0.0
 10
-30.8636
 20
39.2278
 30
0.0
 10
-30.8636
 20
39.2278
 30
0.0
 10
-30.8636
 20
38.7443
 30
0.0
 10
-30.8636
 20
38.7443
 30
0.0
 10
-30.8636
 20
38.7443
 30
0.0
 10
-30.8636
 20
38.7443
 30
0.0
 10
-31.112
 20
38.7443
 30
0.0
 10
-31.112
 20
38.7443
 30
0.0
  0
SPLINE
  5
9C
330
1F
100
AcDbEntity
  8
ILUSTRACE
 62
   250
100
AcDbSpline
210
0.0
220
0.0
230
1.0
 70
    11
 71
     3
 72
    16
 73
    12
 74
     0
 42
0.0000000001
 43
0.0000000001
 40
0.0
 40
0.0
 40
0.0
 40
0.0
 40
0.25
 40
0.25
 40
0.25
 40
0.25
 40
0.5
 40
0.5
 40
0.5
 40
0.5
 40
1.0
 40
1.0
 40
1.0
 40
1.0
 10
-31.112
 20
39.4555
 30
0.0
 10
-31.112
 20
39.4555
 30
0.0
 10
-31.112
 20
40.3661
 30
0.0
 10
-31.112
 20
40.3661
 30
0.0
 10
-31.112
 20
40.3661
 30
0.0
 10
-31.112
 20
40.3661
 30
0.0
 10
-31.7441
 20
39.4555
 30
0.0
 10
-31.7441
 20
39.4555
 30
0.0
 10
-31.7441
 20
39.4555
 30
0.0
 10
-31.7441
 20
39.4555
 30
0.0
 10
-31.112
 20
39.4555
 30
0.0
 10
-31.112
 20
39.4555
 30
0.0
  0
SPLINE
  5
9D
330
1F
100
AcDbEntity
  8
ILUSTRACE
 62
   250
100
AcDbSpline
210
0.0
220
0.0
230
1.0
 70
    11
 71
     3
 72
    28
 73
    24
 74
     0
 42
0.0000000001
 43
0.0000000001
 40
0.0
 40
0.0
 40
0.0
 40
0.0
 40
0.1428571428571428
 40
0.1428571428571428
 40
0.1428571428571428
 40
0.1428571428571428
 40
0.2857142857142857
 40
0.2857142857142857
 40
0.2857142857142857
 40
0.2857142857142857
 40
0.4285714285714285
 40
0.4285714285714285
 40
0.4285714285714285
 40
0.4285714285714285
 40
0.5714285714285714
 40
0.5714285714285714
 40
0.5714285714285714
 40
0.5714285714285714
 40
0.7142857142857143
 40
0.7142857142857143
 40
0.7142857142857143
 40
0.7142857142857143
 40
1.0
 40
1.0
 40
1.0
 40
1.0
 10
-30.2559
 20
40.0491
 30
0.0
 10
-30.2559
 20
40.0491
 30
0.0
 10
-30.325
 20
40.4339
 30
0.0
 10
-30.325
 20
40.4339
 30
0.0
 10
-30.325
 20
40.4339
 30
0.0
 10
-30.325
 20
40.4339
 30
0.0
 10
-30.325
 20
40.7645
 30
0.0
 10
-30.325
 20
40.7645
 30
0.0
 10
-30.325
 20
40.7645
 30
0.0
 10
-30.325
 20
40.7645
 30
0.0
 10
-30.0424
 20
40.7645
 30
0.0
 10
-30.0424
 20
40.7645
 30
0.0
 10
-30.0424
 20
40.7645
 30
0.0
 10
-30.0424
 20
40.7645
 30
0.0
 10
-30.0424
 20
40.4339
 30
0.0
 10
-30.0424
 20
40.4339
 30
0.0
 10
-30.0424
 20
40.4339
 30
0.0
 10
-30.0424
 20
40.4339
 30
0.0
 10
-30.1044
 20
40.0491
 30
0.0
 10
-30.1044
 20
40.0491
 30
0.0
 10
-30.1044
 20
40.0491
 30
0.0
 10
-30.1044
 20
40.0491
 30
0.0
 10
-30.2559
 20
40.0491
 30
0.0
 10
-30.2559
 20
40.0491
 30
0.0
  0
SPLINE
  5
9E
330
1F
100
AcDbEntity
  8
ILUSTRACE
 62
   250
100
AcDbSpline
210
0.0
220
0.0
230
1.0
 70
    11
 71
     3
 72
    28
 73
    24
 74
     0
 42
0.0000000001
 43
0.0000000001
 40
0.0
 40
0.0
 40
0.0
 40
0.0
 40
0.1428571428571428
 40
0.1428571428571428
 40
0.1428571428571428
 40
0.1428571428571428
 40
0.2857142857142857
 40
0.2857142857142857
 40
0.2857142857142857
 40
0.2857142857142857
 40
0.4285714285714285
 40
0.4285714285714285
 40
0.4285714285714285
 40
0.4285714285714285
 40
0.5714285714285714
 40
0.5714285714285714
 40
0.5714285714285714
 40
0.5714285714285714
 40
0.7142857142857143
 40
0.7142857142857143
 40
0.7142857142857143
 40
0.7142857142857143
 40
1.0
 40
1.0
 40
1.0
 40
1.0
 10
-29.7996
 20
40.0491
 30
0.0
 10
-29.7996
 20
40.0491
 30
0.0
 10
-29.8674
 20
40.4339
 30
0.0
 10
-29.8674
 20
40.4339
 30
0.0
 10
-29.8674
 20
40.4339
 30
0.0
 10
-29.8674
 20
40.4339
 30
0.0
 10
-29.8674
 20
40.7645
 30
0.0
 10
-29.8674
 20
40.7645
 30
0.0
 10
-29.8674
 20
40.7645
 30
0.0
 10
-29.8674
 20
40.7645
 30
0.0
 10
-29.5847
 20
40.7645
 30
0.0
 10
-29.5847
 20
40.7645
 30
0.0
 10
-29.5847
 20
40.7645
 30
0.0
 10
-29.5847
 20
40.7645
 30
0.0
 10
-29.5847
 20
40.4339
 30
0.0
 10
-29.5847
 20
40.4339
 30
0.0
 10
-29.5847
 20
40.4339
 30
0.0
 10
-29.5847
 20
40.4339
 30
0.0
 10
-29.651
 20
40.0491
 30
0.0
 10
-29.651
 20
40.0491
 30
0.0
 10
-29.651
 20
40.0491
 30
0.0
 10
-29.651
 20
40.0491
 30
0.0
 10
-29.7996
 20
40.0491
 30
0.0
 10
-29.7996
 20
40.0491
 30
0.0
  0
SPLINE
  5
9F
330
1F
100
AcDbEntity
  8
ILUSTRACE
 62
   250
100
AcDbSpline
210
0.0
220
0.0
230
1.0
 70
    11
 71
     3
 72
    40
 73
    36
 74
     0
 42
0.0000000001
 43
0.0000000001
 40
0.0
 40
0.0
 40
0.0
 40
0.0
 40
0.1
 40
0.1
 40
0.1
 40
0.1
 40
0.2
 40
0.2
 40
0.2
 40
0.2
 40
0.3
 40
0.3
 40
0.3
 40
0.3
 40
0.4
 40
0.4
 40
0.4
 40
0.4
 40
0.5
 40
0.5
 40
0.5
 40
0.5
 40
0.6
 40
0.6
 40
0.6
 40
0.6
 40
0.7
 40
0.7
 40
0.7
 40
0.7
 40
0.8
 40
0.8
 40
0.8
 40
0.8
 40
1.0
 40
1.0
 40
1.0
 40
1.0
 10
-51.8258
 20
5.1478
 30
0.0
 10
-51.8258
 20
5.1478
 30
0.0
 10
-51.8258
 20
4.8999
 30
0.0
 10
-51.8258
 20
4.8999
 30
0.0
 10
-51.8258
 20
4.8999
 30
0.0
 10
-51.8258
 20
4.8999
 30
0.0
 10
-53.4062
 20
4.8999
 30
0.0
 10
-53.4062
 20
4.8999
 30
0.0
 10
-53.4062
 20
4.8999
 30
0.0
 10
-53.3493
 20
4.8401
 30
0.0
 10
-53.2924
 20
4.7621
 30
0.0
 10
-53.2355
 20
4.6652
 30
0.0
 10
-53.2355
 20
4.6652
 30
0.0
 10
-53.1786
 20
4.5678
 30
0.0
 10
-53.1358
 20
4.4808
 30
0.0
 10
-53.1075
 20
4.4036
 30
0.0
 10
-53.1075
 20
4.4036
 30
0.0
 10
-53.1075
 20
4.4036
 30
0.0
 10
-53.347
 20
4.4036
 30
0.0
 10
-53.347
 20
4.4036
 30
0.0
 10
-53.347
 20
4.4036
 30
0.0
 10
-53.4123
 20
4.5424
 30
0.0
 10
-53.4914
 20
4.6638
 30
0.0
 10
-53.584
 20
4.7677
 30
0.0
 10
-53.584
 20
4.7677
 30
0.0
 10
-53.6772
 20
4.8712
 30
0.0
 10
-53.767
 20
4.945
 30
0.0
 10
-53.8545
 20
4.9883
 30
0.0
 10
-53.8545
 20
4.9883
 30
0.0
 10
-53.8545
 20
4.9883
 30
0.0
 10
-53.8545
 20
5.1478
 30
0.0
 10
-53.8545
 20
5.1478
 30
0.0
 10
-53.8545
 20
5.1478
 30
0.0
 10
-53.8545
 20
5.1478
 30
0.0
 10
-51.8258
 20
5.1478
 30
0.0
 10
-51.8258
 20
5.1478
 30
0.0
  0
SPLINE
  5
A0
330
1F
100
AcDbEntity
  8
ILUSTRACE
 62
   250
100
AcDbSpline
210
0.0
220
0.0
230
1.0
 70
    11
 71
     3
 72
    92
 73
    88
 74
     0
 42
0.0000000001
 43
0.0000000001
 40
0.0
 40
0.0
 40
0.0
 40
0.0
 40
0.0434782608695652
 40
0.0434782608695652
 40
0.0434782608695652
 40
0.0434782608695652
 40
0.0869565217391304
 40
0.0869565217391304
 40
0.0869565217391304
 40
0.0869565217391304
 40
0.1304347826086956
 40
0.1304347826086956
 40
0.1304347826086956
 40
0.1304347826086956
 40
0.1739130434782609
 40
0.1739130434782609
 40
0.1739130434782609
 40
0.1739130434782609
 40
0.2173913043478261
 40
0.2173913043478261
 40
0.2173913043478261
 40
0.2173913043478261
 40
0.2608695652173913
 40
0.2608695652173913
 40
0.2608695652173913
 40
0.2608695652173913
 40
0.3043478260869565
 40
0.3043478260869565
 40
0.3043478260869565
 40
0.3043478260869565
 40
0.3478260869565217
 40
0.3478260869565217
 40
0.3478260869565217
 40
0.3478260869565217
 40
0.391304347826087
 40
0.391304347826087
 40
0.391304347826087
 40
0.391304347826087
 40
0.4347826086956522
 40
0.4347826086956522
 40
0.4347826086956522
 40
0.4347826086956522
 40
0.4782608695652174
 40
0.4782608695652174
 40
0.4782608695652174
 40
0.4782608695652174
 40
0.5217391304347826
 40
0.5217391304347826
 40
0.5217391304347826
 40
0.5217391304347826
 40
0.5652173913043478
 40
0.5652173913043478
 40
0.5652173913043478
 40
0.5652173913043478
 40
0.6086956521739131
 40
0.6086956521739131
 40
0.6086956521739131
 40
0.6086956521739131
 40
0.6521739130434783
 40
0.6521739130434783
 40
0.6521739130434783
 40
0.6521739130434783
 40
0.6956521739130435
 40
0.6956521739130435
 40
0.6956521739130435
 40
0.6956521739130435
 40
0.7391304347826086
 40
0.7391304347826086
 40
0.7391304347826086
 40
0.7391304347826086
 40
0.782608695652174
 40
0.782608695652174
 40
0.782608695652174
 40
0.782608695652174
 40
0.8260869565217391
 40
0.8260869565217391
 40
0.8260869565217391
 40
0.8260869565217391
 40
0.8695652173913043
 40
0.8695652173913043
 40
0.8695652173913043
 40
0.8695652173913043
 40
0.9130434782608695
 40
0.9130434782608695
 40
0.9130434782608695
 40
0.9130434782608695
 40
1.0
 40
1.0
 40
1.0
 40
1.0
 10
-52.355
 20
5.7832
 30
0.0
 10
-52.355
 20
5.7832
 30
0.0
 10
-52.3771
 20
6.0438
 30
0.0
 10
-52.3771
 20
6.0438
 30
0.0
 10
-52.3771
 20
6.0438
 30
0.0
 10
-52.2501
 20
6.0631
 30
0.0
 10
-52.1551
 20
6.1078
 30
0.0
 10
-52.0911
 20
6.1779
 30
0.0
 10
-52.0911
 20
6.1779
 30
0.0
 10
-52.0271
 20
6.2484
 30
0.0
 10
-51.9951
 20
6.3331
 30
0.0
 10
-51.9951
 20
6.4323
 30
0.0
 10
-51.9951
 20
6.4323
 30
0.0
 10
-51.9951
 20
6.5518
 30
0.0
 10
-52.0403
 20
6.6529
 30
0.0
 10
-52.1301
 20
6.7352
 30
0.0
 10
-52.1301
 20
6.7352
 30
0.0
 10
-52.2204
 20
6.818
 30
0.0
 10
-52.3399
 20
6.8594
 30
0.0
 10
-52.4885
 20
6.8594
 30
0.0
 10
-52.4885
 20
6.8594
 30
0.0
 10
-52.6301
 20
6.8594
 30
0.0
 10
-52.7416
 20
6.8199
 30
0.0
 10
-52.8234
 20
6.7404
 30
0.0
 10
-52.8234
 20
6.7404
 30
0.0
 10
-52.9053
 20
6.6609
 30
0.0
 10
-52.9462
 20
6.557
 30
0.0
 10
-52.9462
 20
6.4281
 30
0.0
 10
-52.9462
 20
6.4281
 30
0.0
 10
-52.9462
 20
6.3481
 30
0.0
 10
-52.9279
 20
6.2762
 30
0.0
 10
-52.8917
 20
6.2117
 30
0.0
 10
-52.8917
 20
6.2117
 30
0.0
 10
-52.8554
 20
6.1473
 30
0.0
 10
-52.8084
 20
6.097
 30
0.0
 10
-52.7505
 20
6.0603
 30
0.0
 10
-52.7505
 20
6.0603
 30
0.0
 10
-52.7505
 20
6.0603
 30
0.0
 10
-52.7806
 20
5.8274
 30
0.0
 10
-52.7806
 20
5.8274
 30
0.0
 10
-52.7806
 20
5.8274
 30
0.0
 10
-52.7806
 20
5.8274
 30
0.0
 10
-53.8183
 20
6.0231
 30
0.0
 10
-53.8183
 20
6.0231
 30
0.0
 10
-53.8183
 20
6.0231
 30
0.0
 10
-53.8183
 20
6.0231
 30
0.0
 10
-53.8183
 20
7.0278
 30
0.0
 10
-53.8183
 20
7.0278
 30
0.0
 10
-53.8183
 20
7.0278
 30
0.0
 10
-53.8183
 20
7.0278
 30
0.0
 10
-53.5812
 20
7.0278
 30
0.0
 10
-53.5812
 20
7.0278
 30
0.0
 10
-53.5812
 20
7.0278
 30
0.0
 10
-53.5812
 20
7.0278
 30
0.0
 10
-53.5812
 20
6.2216
 30
0.0
 10
-53.5812
 20
6.2216
 30
0.0
 10
-53.5812
 20
6.2216
 30
0.0
 10
-53.5812
 20
6.2216
 30
0.0
 10
-53.0384
 20
6.1125
 30
0.0
 10
-53.0384
 20
6.1125
 30
0.0
 10
-53.0384
 20
6.1125
 30
0.0
 10
-53.1231
 20
6.2338
 30
0.0
 10
-53.1654
 20
6.3613
 30
0.0
 10
-53.1654
 20
6.4944
 30
0.0
 10
-53.1654
 20
6.4944
 30
0.0
 10
-53.1654
 20
6.6708
 30
0.0
 10
-53.1043
 20
6.8194
 30
0.0
 10
-52.982
 20
6.9408
 30
0.0
 10
-52.982
 20
6.9408
 30
0.0
 10
-52.8597
 20
7.0621
 30
0.0
 10
-52.7026
 20
7.1228
 30
0.0
 10
-52.5107
 20
7.1228
 30
0.0
 10
-52.5107
 20
7.1228
 30
0.0
 10
-52.3277
 20
7.1228
 30
0.0
 10
-52.1696
 20
7.0692
 30
0.0
 10
-52.0365
 20
6.9629
 30
0.0
 10
-52.0365
 20
6.9629
 30
0.0
 10
-51.8733
 20
6.8331
 30
0.0
 10
-51.7915
 20
6.6562
 30
0.0
 10
-51.7915
 20
6.4323
 30
0.0
 10
-51.7915
 20
6.4323
 30
0.0
 10
-51.7915
 20
6.2484
 30
0.0
 10
-51.8427
 20
6.0984
 30
0.0
 10
-51.9457
 20
5.9822
 30
0.0
 10
-51.9457
 20
5.9822
 30
0.0
 10
-52.0488
 20
5.866
 30
0.0
 10
-52.1852
 20
5.7997
 30
0.0
 10
-52.355
 20
5.7832
 30
0.0
  0
SPLINE
  5
A1
330
1F
100
AcDbEntity
  8
ILUSTRACE
 62
   250
100
AcDbSpline
210
0.0
220
0.0
230
1.0
 70
    11
 71
     3
 72
    92
 73
    88
 74
     0
 42
0.0000000001
 43
0.0000000001
 40
0.0
 40
0.0
 40
0.0
 40
0.0
 40
0.0434782608695652
 40
0.0434782608695652
 40
0.0434782608695652
 40
0.0434782608695652
 40
0.0869565217391304
 40
0.0869565217391304
 40
0.0869565217391304
 40
0.0869565217391304
 40
0.1304347826086956
 40
0.1304347826086956
 40
0.1304347826086956
 40
0.1304347826086956
 40
0.1739130434782609
 40
0.1739130434782609
 40
0.1739130434782609
 40
0.1739130434782609
 40
0.2173913043478261
 40
0.2173913043478261
 40
0.2173913043478261
 40
0.2173913043478261
 40
0.2608695652173913
 40
0.2608695652173913
 40
0.2608695652173913
 40
0.2608695652173913
 40
0.3043478260869565
 40
0.3043478260869565
 40
0.3043478260869565
 40
0.3043478260869565
 40
0.3478260869565217
 40
0.3478260869565217
 40
0.3478260869565217
 40
0.3478260869565217
 40
0.391304347826087
 40
0.391304347826087
 40
0.391304347826087
 40
0.391304347826087
 40
0.4347826086956522
 40
0.4347826086956522
 40
0.4347826086956522
 40
0.4347826086956522
 40
0.4782608695652174
 40
0.4782608695652174
 40
0.4782608695652174
 40
0.4782608695652174
 40
0.5217391304347826
 40
0.5217391304347826
 40
0.5217391304347826
 40
0.5217391304347826
 40
0.5652173913043478
 40
0.5652173913043478
 40
0.5652173913043478
 40
0.5652173913043478
 40
0.6086956521739131
 40
0.6086956521739131
 40
0.6086956521739131
 40
0.6086956521739131
 40
0.6521739130434783
 40
0.6521739130434783
 40
0.6521739130434783
 40
0.6521739130434783
 40
0.6956521739130435
 40
0.6956521739130435
 40
0.6956521739130435
 40
0.6956521739130435
 40
0.7391304347826086
 40
0.7391304347826086
 40
0.7391304347826086
 40
0.7391304347826086
 40
0.782608695652174
 40
0.782608695652174
 40
0.782608695652174
 40
0.782608695652174
 40
0.8260869565217391
 40
0.8260869565217391
 40
0.8260869565217391
 40
0.8260869565217391
 40
0.8695652173913043
 40
0.8695652173913043
 40
0.8695652173913043
 40
0.8695652173913043
 40
0.9130434782608695
 40
0.9130434782608695
 40
0.9130434782608695
 40
0.9130434782608695
 40
1.0
 40
1.0
 40
1.0
 40
1.0
 10
-52.355
 20
7.3528
 30
0.0
 10
-52.355
 20
7.3528
 30
0.0
 10
-52.3771
 20
7.6134
 30
0.0
 10
-52.3771
 20
7.6134
 30
0.0
 10
-52.3771
 20
7.6134
 30
0.0
 10
-52.2501
 20
7.6327
 30
0.0
 10
-52.1551
 20
7.6774
 30
0.0
 10
-52.0911
 20
7.7475
 30
0.0
 10
-52.0911
 20
7.7475
 30
0.0
 10
-52.0271
 20
7.818
 30
0.0
 10
-51.9951
 20
7.9027
 30
0.0
 10
-51.9951
 20
8.0019
 30
0.0
 10
-51.9951
 20
8.0019
 30
0.0
 10
-51.9951
 20
8.1214
 30
0.0
 10
-52.0403
 20
8.2225
 30
0.0
 10
-52.1301
 20
8.3048
 30
0.0
 10
-52.1301
 20
8.3048
 30
0.0
 10
-52.2204
 20
8.3876
 30
0.0
 10
-52.3399
 20
8.429
 30
0.0
 10
-52.4885
 20
8.429
 30
0.0
 10
-52.4885
 20
8.429
 30
0.0
 10
-52.6301
 20
8.429
 30
0.0
 10
-52.7416
 20
8.3895
 30
0.0
 10
-52.8234
 20
8.31
 30
0.0
 10
-52.8234
 20
8.31
 30
0.0
 10
-52.9053
 20
8.2305
 30
0.0
 10
-52.9462
 20
8.1266
 30
0.0
 10
-52.9462
 20
7.9977
 30
0.0
 10
-52.9462
 20
7.9977
 30
0.0
 10
-52.9462
 20
7.9177
 30
0.0
 10
-52.9279
 20
7.8458
 30
0.0
 10
-52.8917
 20
7.7813
 30
0.0
 10
-52.8917
 20
7.7813
 30
0.0
 10
-52.8554
 20
7.7169
 30
0.0
 10
-52.8084
 20
7.6666
 30
0.0
 10
-52.7505
 20
7.6299
 30
0.0
 10
-52.7505
 20
7.6299
 30
0.0
 10
-52.7505
 20
7.6299
 30
0.0
 10
-52.7806
 20
7.397
 30
0.0
 10
-52.7806
 20
7.397
 30
0.0
 10
-52.7806
 20
7.397
 30
0.0
 10
-52.7806
 20
7.397
 30
0.0
 10
-53.8183
 20
7.5927
 30
0.0
 10
-53.8183
 20
7.5927
 30
0.0
 10
-53.8183
 20
7.5927
 30
0.0
 10
-53.8183
 20
7.5927
 30
0.0
 10
-53.8183
 20
8.5974
 30
0.0
 10
-53.8183
 20
8.5974
 30
0.0
 10
-53.8183
 20
8.5974
 30
0.0
 10
-53.8183
 20
8.5974
 30
0.0
 10
-53.5812
 20
8.5974
 30
0.0
 10
-53.5812
 20
8.5974
 30
0.0
 10
-53.5812
 20
8.5974
 30
0.0
 10
-53.5812
 20
8.5974
 30
0.0
 10
-53.5812
 20
7.7912
 30
0.0
 10
-53.5812
 20
7.7912
 30
0.0
 10
-53.5812
 20
7.7912
 30
0.0
 10
-53.5812
 20
7.7912
 30
0.0
 10
-53.0384
 20
7.6821
 30
0.0
 10
-53.0384
 20
7.6821
 30
0.0
 10
-53.0384
 20
7.6821
 30
0.0
 10
-53.1231
 20
7.8034
 30
0.0
 10
-53.1654
 20
7.9309
 30
0.0
 10
-53.1654
 20
8.064
 30
0.0
 10
-53.1654
 20
8.064
 30
0.0
 10
-53.1654
 20
8.2404
 30
0.0
 10
-53.1043
 20
8.389
 30
0.0
 10
-52.982
 20
8.5104
 30
0.0
 10
-52.982
 20
8.5104
 30
0.0
 10
-52.8597
 20
8.6317
 30
0.0
 10
-52.7026
 20
8.6924
 30
0.0
 10
-52.5107
 20
8.6924
 30
0.0
 10
-52.5107
 20
8.6924
 30
0.0
 10
-52.3277
 20
8.6924
 30
0.0
 10
-52.1696
 20
8.6388
 30
0.0
 10
-52.0365
 20
8.5325
 30
0.0
 10
-52.0365
 20
8.5325
 30
0.0
 10
-51.8733
 20
8.4027
 30
0.0
 10
-51.7915
 20
8.2258
 30
0.0
 10
-51.7915
 20
8.0019
 30
0.0
 10
-51.7915
 20
8.0019
 30
0.0
 10
-51.7915
 20
7.818
 30
0.0
 10
-51.8427
 20
7.668
 30
0.0
 10
-51.9457
 20
7.5518
 30
0.0
 10
-51.9457
 20
7.5518
 30
0.0
 10
-52.0488
 20
7.4356
 30
0.0
 10
-52.1852
 20
7.3693
 30
0.0
 10
-52.355
 20
7.3528
 30
0.0
  0
SPLINE
  5
A2
330
1F
100
AcDbEntity
  8
ILUSTRACE
 62
   250
100
AcDbSpline
210
0.0
220
0.0
230
1.0
 70
    11
 71
     3
 72
    20
 73
    16
 74
     0
 42
0.0000000001
 43
0.0000000001
 40
0.0
 40
0.0
 40
0.0
 40
0.0
 40
0.2
 40
0.2
 40
0.2
 40
0.2
 40
0.4
 40
0.4
 40
0.4
 40
0.4
 40
0.6
 40
0.6
 40
0.6
 40
0.6
 40
1.0
 40
1.0
 40
1.0
 40
1.0
 10
-52.4321
 20
9.6788
 30
0.0
 10
-52.4321
 20
9.6788
 30
0.0
 10
-52.6814
 20
9.6788
 30
0.0
 10
-52.6814
 20
9.6788
 30
0.0
 10
-52.6814
 20
9.6788
 30
0.0
 10
-52.6814
 20
9.6788
 30
0.0
 10
-52.6814
 20
10.4412
 30
0.0
 10
-52.6814
 20
10.4412
 30
0.0
 10
-52.6814
 20
10.4412
 30
0.0
 10
-52.6814
 20
10.4412
 30
0.0
 10
-52.4321
 20
10.4412
 30
0.0
 10
-52.4321
 20
10.4412
 30
0.0
 10
-52.4321
 20
10.4412
 30
0.0
 10
-52.4321
 20
10.4412
 30
0.0
 10
-52.4321
 20
9.6788
 30
0.0
 10
-52.4321
 20
9.6788
 30
0.0
  0
SPLINE
  5
A3
330
1F
100
AcDbEntity
  8
ILUSTRACE
 62
   250
100
AcDbSpline
210
0.0
220
0.0
230
1.0
 70
    11
 71
     3
 72
    40
 73
    36
 74
     0
 42
0.0000000001
 43
0.0000000001
 40
0.0
 40
0.0
 40
0.0
 40
0.0
 40
0.1
 40
0.1
 40
0.1
 40
0.1
 40
0.2
 40
0.2
 40
0.2
 40
0.2
 40
0.3
 40
0.3
 40
0.3
 40
0.3
 40
0.4
 40
0.4
 40
0.4
 40
0.4
 40
0.5
 40
0.5
 40
0.5
 40
0.5
 40
0.6
 40
0.6
 40
0.6
 40
0.6
 40
0.7
 40
0.7
 40
0.7
 40
0.7
 40
0.8
 40
0.8
 40
0.8
 40
0.8
 40
1.0
 40
1.0
 40
1.0
 40
1.0
 10
-51.8258
 20
12.3646
 30
0.0
 10
-51.8258
 20
12.3646
 30
0.0
 10
-51.8258
 20
12.1167
 30
0.0
 10
-51.8258
 20
12.1167
 30
0.0
 10
-51.8258
 20
12.1167
 30
0.0
 10
-51.8258
 20
12.1167
 30
0.0
 10
-53.4062
 20
12.1167
 30
0.0
 10
-53.4062
 20
12.1167
 30
0.0
 10
-53.4062
 20
12.1167
 30
0.0
 10
-53.3493
 20
12.0569
 30
0.0
 10
-53.2924
 20
11.9789
 30
0.0
 10
-53.2355
 20
11.882
 30
0.0
 10
-53.2355
 20
11.882
 30
0.0
 10
-53.1786
 20
11.7846
 30
0.0
 10
-53.1358
 20
11.6976
 30
0.0
 10
-53.1075
 20
11.6204
 30
0.0
 10
-53.1075
 20
11.6204
 30
0.0
 10
-53.1075
 20
11.6204
 30
0.0
 10
-53.347
 20
11.6204
 30
0.0
 10
-53.347
 20
11.6204
 30
0.0
 10
-53.347
 20
11.6204
 30
0.0
 10
-53.4123
 20
11.7592
 30
0.0
 10
-53.4914
 20
11.8806
 30
0.0
 10
-53.584
 20
11.9845
 30
0.0
 10
-53.584
 20
11.9845
 30
0.0
 10
-53.6772
 20
12.088
 30
0.0
 10
-53.767
 20
12.1618
 30
0.0
 10
-53.8545
 20
12.2051
 30
0.0
 10
-53.8545
 20
12.2051
 30
0.0
 10
-53.8545
 20
12.2051
 30
0.0
 10
-53.8545
 20
12.3646
 30
0.0
 10
-53.8545
 20
12.3646
 30
0.0
 10
-53.8545
 20
12.3646
 30
0.0
 10
-53.8545
 20
12.3646
 30
0.0
 10
-51.8258
 20
12.3646
 30
0.0
 10
-51.8258
 20
12.3646
 30
0.0
  0
SPLINE
  5
A4
330
1F
100
AcDbEntity
  8
ILUSTRACE
 62
   250
100
AcDbSpline
210
0.0
220
0.0
230
1.0
 70
    11
 71
     3
 72
    68
 73
    64
 74
     0
 42
0.0000000001
 43
0.0000000001
 40
0.0
 40
0.0
 40
0.0
 40
0.0
 40
0.0588235294117647
 40
0.0588235294117647
 40
0.0588235294117647
 40
0.0588235294117647
 40
0.1176470588235294
 40
0.1176470588235294
 40
0.1176470588235294
 40
0.1176470588235294
 40
0.1764705882352941
 40
0.1764705882352941
 40
0.1764705882352941
 40
0.1764705882352941
 40
0.2352941176470588
 40
0.2352941176470588
 40
0.2352941176470588
 40
0.2352941176470588
 40
0.2941176470588235
 40
0.2941176470588235
 40
0.2941176470588235
 40
0.2941176470588235
 40
0.3529411764705883
 40
0.3529411764705883
 40
0.3529411764705883
 40
0.3529411764705883
 40
0.4117647058823529
 40
0.4117647058823529
 40
0.4117647058823529
 40
0.4117647058823529
 40
0.4705882352941176
 40
0.4705882352941176
 40
0.4705882352941176
 40
0.4705882352941176
 40
0.5294117647058824
 40
0.5294117647058824
 40
0.5294117647058824
 40
0.5294117647058824
 40
0.5882352941176471
 40
0.5882352941176471
 40
0.5882352941176471
 40
0.5882352941176471
 40
0.6470588235294118
 40
0.6470588235294118
 40
0.6470588235294118
 40
0.6470588235294118
 40
0.7058823529411765
 40
0.7058823529411765
 40
0.7058823529411765
 40
0.7058823529411765
 40
0.7647058823529411
 40
0.7647058823529411
 40
0.7647058823529411
 40
0.7647058823529411
 40
0.8235294117647058
 40
0.8235294117647058
 40
0.8235294117647058
 40
0.8235294117647058
 40
0.8823529411764706
 40
0.8823529411764706
 40
0.8823529411764706
 40
0.8823529411764706
 40
1.0
 40
1.0
 40
1.0
 40
1.0
 10
-52.9213
 20
13.382
 30
0.0
 10
-52.9589
 20
13.2789
 30
0.0
 10
-53.0125
 20
13.2027
 30
0.0
 10
-53.0826
 20
13.1529
 30
0.0
 10
-53.0826
 20
13.1529
 30
0.0
 10
-53.1522
 20
13.1035
 30
0.0
 10
-53.236
 20
13.0786
 30
0.0
 10
-53.3333
 20
13.0786
 30
0.0
 10
-53.3333
 20
13.0786
 30
0.0
 10
-53.4805
 20
13.0786
 30
0.0
 10
-53.6038
 20
13.1313
 30
0.0
 10
-53.704
 20
13.2371
 30
0.0
 10
-53.704
 20
13.2371
 30
0.0
 10
-53.8042
 20
13.3429
 30
0.0
 10
-53.8545
 20
13.4831
 30
0.0
 10
-53.8545
 20
13.6585
 30
0.0
 10
-53.8545
 20
13.6585
 30
0.0
 10
-53.8545
 20
13.8349
 30
0.0
 10
-53.8032
 20
13.977
 30
0.0
 10
-53.7007
 20
14.0847
 30
0.0
 10
-53.7007
 20
14.0847
 30
0.0
 10
-53.5981
 20
14.1919
 30
0.0
 10
-53.4735
 20
14.2456
 30
0.0
 10
-53.3263
 20
14.2456
 30
0.0
 10
-53.3263
 20
14.2456
 30
0.0
 10
-53.2327
 20
14.2456
 30
0.0
 10
-53.1513
 20
14.2211
 30
0.0
 10
-53.0817
 20
14.1722
 30
0.0
 10
-53.0817
 20
14.1722
 30
0.0
 10
-53.0125
 20
14.1228
 30
0.0
 10
-52.9589
 20
14.0485
 30
0.0
 10
-52.9213
 20
13.9483
 30
0.0
 10
-52.9213
 20
13.9483
 30
0.0
 10
-52.8808
 20
14.072
 30
0.0
 10
-52.8159
 20
14.1665
 30
0.0
 10
-52.7256
 20
14.2314
 30
0.0
 10
-52.7256
 20
14.2314
 30
0.0
 10
-52.6358
 20
14.2959
 30
0.0
 10
-52.5281
 20
14.3283
 30
0.0
 10
-52.4034
 20
14.3283
 30
0.0
 10
-52.4034
 20
14.3283
 30
0.0
 10
-52.2303
 20
14.3283
 30
0.0
 10
-52.0854
 20
14.2672
 30
0.0
 10
-51.9679
 20
14.1454
 30
0.0
 10
-51.9679
 20
14.1454
 30
0.0
 10
-51.8503
 20
14.0231
 30
0.0
 10
-51.7915
 20
13.8622
 30
0.0
 10
-51.7915
 20
13.6628
 30
0.0
 10
-51.7915
 20
13.6628
 30
0.0
 10
-51.7915
 20
13.4633
 30
0.0
 10
-51.8503
 20
13.3029
 30
0.0
 10
-51.9683
 20
13.1806
 30
0.0
 10
-51.9683
 20
13.1806
 30
0.0
 10
-52.0864
 20
13.0583
 30
0.0
 10
-52.2336
 20
12.9972
 30
0.0
 10
-52.41
 20
12.9972
 30
0.0
 10
-52.41
 20
12.9972
 30
0.0
 10
-52.5412
 20
12.9972
 30
0.0
 10
-52.6513
 20
13.0306
 30
0.0
 10
-52.7402
 20
13.0974
 30
0.0
 10
-52.7402
 20
13.0974
 30
0.0
 10
-52.8286
 20
13.1637
 30
0.0
 10
-52.8893
 20
13.2587
 30
0.0
 10
-52.9213
 20
13.382
 30
0.0
  0
SPLINE
  5
A5
330
1F
100
AcDbEntity
  8
ILUSTRACE
 62
   250
100
AcDbSpline
210
0.0
220
0.0
230
1.0
 70
    11
 71
     3
 72
    36
 73
    32
 74
     0
 42
0.0000000001
 43
0.0000000001
 40
0.0
 40
0.0
 40
0.0
 40
0.0
 40
0.1111111111111111
 40
0.1111111111111111
 40
0.1111111111111111
 40
0.1111111111111111
 40
0.2222222222222222
 40
0.2222222222222222
 40
0.2222222222222222
 40
0.2222222222222222
 40
0.3333333333333333
 40
0.3333333333333333
 40
0.3333333333333333
 40
0.3333333333333333
 40
0.4444444444444444
 40
0.4444444444444444
 40
0.4444444444444444
 40
0.4444444444444444
 40
0.5555555555555556
 40
0.5555555555555556
 40
0.5555555555555556
 40
0.5555555555555556
 40
0.6666666666666666
 40
0.6666666666666666
 40
0.6666666666666666
 40
0.6666666666666666
 40
0.7777777777777778
 40
0.7777777777777778
 40
0.7777777777777778
 40
0.7777777777777778
 40
1.0
 40
1.0
 40
1.0
 40
1.0
 10
-53.3418
 20
13.3321
 30
0.0
 10
-53.2463
 20
13.3321
 30
0.0
 10
-53.1682
 20
13.3631
 30
0.0
 10
-53.1075
 20
13.4243
 30
0.0
 10
-53.1075
 20
13.4243
 30
0.0
 10
-53.0469
 20
13.4859
 30
0.0
 10
-53.0163
 20
13.5659
 30
0.0
 10
-53.0163
 20
13.6642
 30
0.0
 10
-53.0163
 20
13.6642
 30
0.0
 10
-53.0163
 20
13.7597
 30
0.0
 10
-53.0464
 20
13.8382
 30
0.0
 10
-53.1066
 20
13.8994
 30
0.0
 10
-53.1066
 20
13.8994
 30
0.0
 10
-53.1668
 20
13.9605
 30
0.0
 10
-53.2407
 20
13.9906
 30
0.0
 10
-53.3277
 20
13.9906
 30
0.0
 10
-53.3277
 20
13.9906
 30
0.0
 10
-53.4189
 20
13.9906
 30
0.0
 10
-53.4951
 20
13.9596
 30
0.0
 10
-53.5572
 20
13.8965
 30
0.0
 10
-53.5572
 20
13.8965
 30
0.0
 10
-53.6193
 20
13.8335
 30
0.0
 10
-53.6504
 20
13.7554
 30
0.0
 10
-53.6504
 20
13.6614
 30
0.0
 10
-53.6504
 20
13.6614
 30
0.0
 10
-53.6504
 20
13.5668
 30
0.0
 10
-53.6198
 20
13.4883
 30
0.0
 10
-53.5596
 20
13.4257
 30
0.0
 10
-53.5596
 20
13.4257
 30
0.0
 10
-53.4989
 20
13.3631
 30
0.0
 10
-53.426
 20
13.3321
 30
0.0
 10
-53.3418
 20
13.3321
 30
0.0
  0
SPLINE
  5
A6
330
1F
100
AcDbEntity
  8
ILUSTRACE
 62
   250
100
AcDbSpline
210
0.0
220
0.0
230
1.0
 70
    11
 71
     3
 72
    40
 73
    36
 74
     0
 42
0.0000000001
 43
0.0000000001
 40
0.0
 40
0.0
 40
0.0
 40
0.0
 40
0.1
 40
0.1
 40
0.1
 40
0.1
 40
0.2
 40
0.2
 40
0.2
 40
0.2
 40
0.3
 40
0.3
 40
0.3
 40
0.3
 40
0.4
 40
0.4
 40
0.4
 40
0.4
 40
0.5
 40
0.5
 40
0.5
 40
0.5
 40
0.6
 40
0.6
 40
0.6
 40
0.6
 40
0.7
 40
0.7
 40
0.7
 40
0.7
 40
0.8
 40
0.8
 40
0.8
 40
0.8
 40
1.0
 40
1.0
 40
1.0
 40
1.0
 10
-52.4086
 20
13.2521
 30
0.0
 10
-52.338
 20
13.2521
 30
0.0
 10
-52.2694
 20
13.2691
 30
0.0
 10
-52.2035
 20
13.3025
 30
0.0
 10
-52.2035
 20
13.3025
 30
0.0
 10
-52.1372
 20
13.3359
 30
0.0
 10
-52.0859
 20
13.3857
 30
0.0
 10
-52.0497
 20
13.452
 30
0.0
 10
-52.0497
 20
13.452
 30
0.0
 10
-52.0135
 20
13.5184
 30
0.0
 10
-51.9951
 20
13.5894
 30
0.0
 10
-51.9951
 20
13.6656
 30
0.0
 10
-51.9951
 20
13.6656
 30
0.0
 10
-51.9951
 20
13.7841
 30
0.0
 10
-52.0332
 20
13.882
 30
0.0
 10
-52.1099
 20
13.9591
 30
0.0
 10
-52.1099
 20
13.9591
 30
0.0
 10
-52.1861
 20
14.0362
 30
0.0
 10
-52.283
 20
14.0748
 30
0.0
 10
-52.4006
 20
14.0748
 30
0.0
 10
-52.4006
 20
14.0748
 30
0.0
 10
-52.5201
 20
14.0748
 30
0.0
 10
-52.6188
 20
14.0353
 30
0.0
 10
-52.6969
 20
13.9558
 30
0.0
 10
-52.6969
 20
13.9558
 30
0.0
 10
-52.775
 20
13.8763
 30
0.0
 10
-52.814
 20
13.7766
 30
0.0
 10
-52.814
 20
13.6571
 30
0.0
 10
-52.814
 20
13.6571
 30
0.0
 10
-52.814
 20
13.5405
 30
0.0
 10
-52.7755
 20
13.444
 30
0.0
 10
-52.6983
 20
13.3674
 30
0.0
 10
-52.6983
 20
13.3674
 30
0.0
 10
-52.6207
 20
13.2907
 30
0.0
 10
-52.5243
 20
13.2521
 30
0.0
 10
-52.4086
 20
13.2521
 30
0.0
  0
SPLINE
  5
A7
330
1F
100
AcDbEntity
  8
ILUSTRACE
 62
   250
100
AcDbSpline
210
0.0
220
0.0
230
1.0
 70
    11
 71
     3
 72
    68
 73
    64
 74
     0
 42
0.0000000001
 43
0.0000000001
 40
0.0
 40
0.0
 40
0.0
 40
0.0
 40
0.0588235294117647
 40
0.0588235294117647
 40
0.0588235294117647
 40
0.0588235294117647
 40
0.1176470588235294
 40
0.1176470588235294
 40
0.1176470588235294
 40
0.1176470588235294
 40
0.1764705882352941
 40
0.1764705882352941
 40
0.1764705882352941
 40
0.1764705882352941
 40
0.2352941176470588
 40
0.2352941176470588
 40
0.2352941176470588
 40
0.2352941176470588
 40
0.2941176470588235
 40
0.2941176470588235
 40
0.2941176470588235
 40
0.2941176470588235
 40
0.3529411764705883
 40
0.3529411764705883
 40
0.3529411764705883
 40
0.3529411764705883
 40
0.4117647058823529
 40
0.4117647058823529
 40
0.4117647058823529
 40
0.4117647058823529
 40
0.4705882352941176
 40
0.4705882352941176
 40
0.4705882352941176
 40
0.4705882352941176
 40
0.5294117647058824
 40
0.5294117647058824
 40
0.5294117647058824
 40
0.5294117647058824
 40
0.5882352941176471
 40
0.5882352941176471
 40
0.5882352941176471
 40
0.5882352941176471
 40
0.6470588235294118
 40
0.6470588235294118
 40
0.6470588235294118
 40
0.6470588235294118
 40
0.7058823529411765
 40
0.7058823529411765
 40
0.7058823529411765
 40
0.7058823529411765
 40
0.7647058823529411
 40
0.7647058823529411
 40
0.7647058823529411
 40
0.7647058823529411
 40
0.8235294117647058
 40
0.8235294117647058
 40
0.8235294117647058
 40
0.8235294117647058
 40
0.8823529411764706
 40
0.8823529411764706
 40
0.8823529411764706
 40
0.8823529411764706
 40
1.0
 40
1.0
 40
1.0
 40
1.0
 10
-52.9213
 20
14.9516
 30
0.0
 10
-52.9589
 20
14.8485
 30
0.0
 10
-53.0125
 20
14.7723
 30
0.0
 10
-53.0826
 20
14.7225
 30
0.0
 10
-53.0826
 20
14.7225
 30
0.0
 10
-53.1522
 20
14.6731
 30
0.0
 10
-53.236
 20
14.6482
 30
0.0
 10
-53.3333
 20
14.6482
 30
0.0
 10
-53.3333
 20
14.6482
 30
0.0
 10
-53.4805
 20
14.6482
 30
0.0
 10
-53.6038
 20
14.7009
 30
0.0
 10
-53.704
 20
14.8067
 30
0.0
 10
-53.704
 20
14.8067
 30
0.0
 10
-53.8042
 20
14.9125
 30
0.0
 10
-53.8545
 20
15.0527
 30
0.0
 10
-53.8545
 20
15.2281
 30
0.0
 10
-53.8545
 20
15.2281
 30
0.0
 10
-53.8545
 20
15.4045
 30
0.0
 10
-53.8032
 20
15.5466
 30
0.0
 10
-53.7007
 20
15.6543
 30
0.0
 10
-53.7007
 20
15.6543
 30
0.0
 10
-53.5981
 20
15.7615
 30
0.0
 10
-53.4735
 20
15.8152
 30
0.0
 10
-53.3263
 20
15.8152
 30
0.0
 10
-53.3263
 20
15.8152
 30
0.0
 10
-53.2327
 20
15.8152
 30
0.0
 10
-53.1513
 20
15.7907
 30
0.0
 10
-53.0817
 20
15.7418
 30
0.0
 10
-53.0817
 20
15.7418
 30
0.0
 10
-53.0125
 20
15.6924
 30
0.0
 10
-52.9589
 20
15.6181
 30
0.0
 10
-52.9213
 20
15.5179
 30
0.0
 10
-52.9213
 20
15.5179
 30
0.0
 10
-52.8808
 20
15.6416
 30
0.0
 10
-52.8159
 20
15.7361
 30
0.0
 10
-52.7256
 20
15.801
 30
0.0
 10
-52.7256
 20
15.801
 30
0.0
 10
-52.6358
 20
15.8655
 30
0.0
 10
-52.5281
 20
15.8979
 30
0.0
 10
-52.4034
 20
15.8979
 30
0.0
 10
-52.4034
 20
15.8979
 30
0.0
 10
-52.2303
 20
15.8979
 30
0.0
 10
-52.0854
 20
15.8368
 30
0.0
 10
-51.9679
 20
15.715
 30
0.0
 10
-51.9679
 20
15.715
 30
0.0
 10
-51.8503
 20
15.5927
 30
0.0
 10
-51.7915
 20
15.4318
 30
0.0
 10
-51.7915
 20
15.2324
 30
0.0
 10
-51.7915
 20
15.2324
 30
0.0
 10
-51.7915
 20
15.0329
 30
0.0
 10
-51.8503
 20
14.8725
 30
0.0
 10
-51.9683
 20
14.7502
 30
0.0
 10
-51.9683
 20
14.7502
 30
0.0
 10
-52.0864
 20
14.6279
 30
0.0
 10
-52.2336
 20
14.5668
 30
0.0
 10
-52.41
 20
14.5668
 30
0.0
 10
-52.41
 20
14.5668
 30
0.0
 10
-52.5412
 20
14.5668
 30
0.0
 10
-52.6513
 20
14.6002
 30
0.0
 10
-52.7402
 20
14.667
 30
0.0
 10
-52.7402
 20
14.667
 30
0.0
 10
-52.8286
 20
14.7333
 30
0.0
 10
-52.8893
 20
14.8283
 30
0.0
 10
-52.9213
 20
14.9516
 30
0.0
  0
SPLINE
  5
A8
330
1F
100
AcDbEntity
  8
ILUSTRACE
 62
   250
100
AcDbSpline
210
0.0
220
0.0
230
1.0
 70
    11
 71
     3
 72
    36
 73
    32
 74
     0
 42
0.0000000001
 43
0.0000000001
 40
0.0
 40
0.0
 40
0.0
 40
0.0
 40
0.1111111111111111
 40
0.1111111111111111
 40
0.1111111111111111
 40
0.1111111111111111
 40
0.2222222222222222
 40
0.2222222222222222
 40
0.2222222222222222
 40
0.2222222222222222
 40
0.3333333333333333
 40
0.3333333333333333
 40
0.3333333333333333
 40
0.3333333333333333
 40
0.4444444444444444
 40
0.4444444444444444
 40
0.4444444444444444
 40
0.4444444444444444
 40
0.5555555555555556
 40
0.5555555555555556
 40
0.5555555555555556
 40
0.5555555555555556
 40
0.6666666666666666
 40
0.6666666666666666
 40
0.6666666666666666
 40
0.6666666666666666
 40
0.7777777777777778
 40
0.7777777777777778
 40
0.7777777777777778
 40
0.7777777777777778
 40
1.0
 40
1.0
 40
1.0
 40
1.0
 10
-53.3418
 20
14.9017
 30
0.0
 10
-53.2463
 20
14.9017
 30
0.0
 10
-53.1682
 20
14.9327
 30
0.0
 10
-53.1075
 20
14.9939
 30
0.0
 10
-53.1075
 20
14.9939
 30
0.0
 10
-53.0469
 20
15.0555
 30
0.0
 10
-53.0163
 20
15.1355
 30
0.0
 10
-53.0163
 20
15.2338
 30
0.0
 10
-53.0163
 20
15.2338
 30
0.0
 10
-53.0163
 20
15.3293
 30
0.0
 10
-53.0464
 20
15.4078
 30
0.0
 10
-53.1066
 20
15.469
 30
0.0
 10
-53.1066
 20
15.469
 30
0.0
 10
-53.1668
 20
15.5301
 30
0.0
 10
-53.2407
 20
15.5602
 30
0.0
 10
-53.3277
 20
15.5602
 30
0.0
 10
-53.3277
 20
15.5602
 30
0.0
 10
-53.4189
 20
15.5602
 30
0.0
 10
-53.4951
 20
15.5292
 30
0.0
 10
-53.5572
 20
15.4661
 30
0.0
 10
-53.5572
 20
15.4661
 30
0.0
 10
-53.6193
 20
15.4031
 30
0.0
 10
-53.6504
 20
15.325
 30
0.0
 10
-53.6504
 20
15.231
 30
0.0
 10
-53.6504
 20
15.231
 30
0.0
 10
-53.6504
 20
15.1364
 30
0.0
 10
-53.6198
 20
15.0579
 30
0.0
 10
-53.5596
 20
14.9953
 30
0.0
 10
-53.5596
 20
14.9953
 30
0.0
 10
-53.4989
 20
14.9327
 30
0.0
 10
-53.426
 20
14.9017
 30
0.0
 10
-53.3418
 20
14.9017
 30
0.0
  0
SPLINE
  5
A9
330
1F
100
AcDbEntity
  8
ILUSTRACE
 62
   250
100
AcDbSpline
210
0.0
220
0.0
230
1.0
 70
    11
 71
     3
 72
    40
 73
    36
 74
     0
 42
0.0000000001
 43
0.0000000001
 40
0.0
 40
0.0
 40
0.0
 40
0.0
 40
0.1
 40
0.1
 40
0.1
 40
0.1
 40
0.2
 40
0.2
 40
0.2
 40
0.2
 40
0.3
 40
0.3
 40
0.3
 40
0.3
 40
0.4
 40
0.4
 40
0.4
 40
0.4
 40
0.5
 40
0.5
 40
0.5
 40
0.5
 40
0.6
 40
0.6
 40
0.6
 40
0.6
 40
0.7
 40
0.7
 40
0.7
 40
0.7
 40
0.8
 40
0.8
 40
0.8
 40
0.8
 40
1.0
 40
1.0
 40
1.0
 40
1.0
 10
-52.4086
 20
14.8217
 30
0.0
 10
-52.338
 20
14.8217
 30
0.0
 10
-52.2694
 20
14.8387
 30
0.0
 10
-52.2035
 20
14.8721
 30
0.0
 10
-52.2035
 20
14.8721
 30
0.0
 10
-52.1372
 20
14.9055
 30
0.0
 10
-52.0859
 20
14.9553
 30
0.0
 10
-52.0497
 20
15.0216
 30
0.0
 10
-52.0497
 20
15.0216
 30
0.0
 10
-52.0135
 20
15.088
 30
0.0
 10
-51.9951
 20
15.159
 30
0.0
 10
-51.9951
 20
15.2352
 30
0.0
 10
-51.9951
 20
15.2352
 30
0.0
 10
-51.9951
 20
15.3537
 30
0.0
 10
-52.0332
 20
15.4516
 30
0.0
 10
-52.1099
 20
15.5287
 30
0.0
 10
-52.1099
 20
15.5287
 30
0.0
 10
-52.1861
 20
15.6058
 30
0.0
 10
-52.283
 20
15.6444
 30
0.0
 10
-52.4006
 20
15.6444
 30
0.0
 10
-52.4006
 20
15.6444
 30
0.0
 10
-52.5201
 20
15.6444
 30
0.0
 10
-52.6188
 20
15.6049
 30
0.0
 10
-52.6969
 20
15.5254
 30
0.0
 10
-52.6969
 20
15.5254
 30
0.0
 10
-52.775
 20
15.4459
 30
0.0
 10
-52.814
 20
15.3462
 30
0.0
 10
-52.814
 20
15.2267
 30
0.0
 10
-52.814
 20
15.2267
 30
0.0
 10
-52.814
 20
15.1101
 30
0.0
 10
-52.7755
 20
15.0136
 30
0.0
 10
-52.6983
 20
14.937
 30
0.0
 10
-52.6983
 20
14.937
 30
0.0
 10
-52.6207
 20
14.8603
 30
0.0
 10
-52.5243
 20
14.8217
 30
0.0
 10
-52.4086
 20
14.8217
 30
0.0
  0
SPLINE
  5
AA
330
1F
100
AcDbEntity
  8
ILUSTRACE
 62
   250
100
AcDbSpline
210
0.0
220
0.0
230
1.0
 70
    11
 71
     3
 72
   116
 73
   112
 74
     0
 42
0.0000000001
 43
0.0000000001
 40
0.0
 40
0.0
 40
0.0
 40
0.0
 40
0.0344827586206897
 40
0.0344827586206897
 40
0.0344827586206897
 40
0.0344827586206897
 40
0.0689655172413793
 40
0.0689655172413793
 40
0.0689655172413793
 40
0.0689655172413793
 40
0.103448275862069
 40
0.103448275862069
 40
0.103448275862069
 40
0.103448275862069
 40
0.1379310344827586
 40
0.1379310344827586
 40
0.1379310344827586
 40
0.1379310344827586
 40
0.1724137931034483
 40
0.1724137931034483
 40
0.1724137931034483
 40
0.1724137931034483
 40
0.2068965517241379
 40
0.2068965517241379
 40
0.2068965517241379
 40
0.2068965517241379
 40
0.2413793103448276
 40
0.2413793103448276
 40
0.2413793103448276
 40
0.2413793103448276
 40
0.2758620689655172
 40
0.2758620689655172
 40
0.2758620689655172
 40
0.2758620689655172
 40
0.3103448275862069
 40
0.3103448275862069
 40
0.3103448275862069
 40
0.3103448275862069
 40
0.3448275862068966
 40
0.3448275862068966
 40
0.3448275862068966
 40
0.3448275862068966
 40
0.3793103448275862
 40
0.3793103448275862
 40
0.3793103448275862
 40
0.3793103448275862
 40
0.4137931034482759
 40
0.4137931034482759
 40
0.4137931034482759
 40
0.4137931034482759
 40
0.4482758620689655
 40
0.4482758620689655
 40
0.4482758620689655
 40
0.4482758620689655
 40
0.4827586206896552
 40
0.4827586206896552
 40
0.4827586206896552
 40
0.4827586206896552
 40
0.5172413793103449
 40
0.5172413793103449
 40
0.5172413793103449
 40
0.5172413793103449
 40
0.5517241379310345
 40
0.5517241379310345
 40
0.5517241379310345
 40
0.5517241379310345
 40
0.5862068965517241
 40
0.5862068965517241
 40
0.5862068965517241
 40
0.5862068965517241
 40
0.6206896551724138
 40
0.6206896551724138
 40
0.6206896551724138
 40
0.6206896551724138
 40
0.6551724137931034
 40
0.6551724137931034
 40
0.6551724137931034
 40
0.6551724137931034
 40
0.6896551724137931
 40
0.6896551724137931
 40
0.6896551724137931
 40
0.6896551724137931
 40
0.7241379310344828
 40
0.7241379310344828
 40
0.7241379310344828
 40
0.7241379310344828
 40
0.7586206896551724
 40
0.7586206896551724
 40
0.7586206896551724
 40
0.7586206896551724
 40
0.7931034482758621
 40
0.7931034482758621
 40
0.7931034482758621
 40
0.7931034482758621
 40
0.8275862068965517
 40
0.8275862068965517
 40
0.8275862068965517
 40
0.8275862068965517
 40
0.8620689655172413
 40
0.8620689655172413
 40
0.8620689655172413
 40
0.8620689655172413
 40
0.896551724137931
 40
0.896551724137931
 40
0.896551724137931
 40
0.896551724137931
 40
0.9310344827586207
 40
0.9310344827586207
 40
0.9310344827586207
 40
0.9310344827586207
 40
1.0
 40
1.0
 40
1.0
 40
1.0
 10
14.562
 20
3.1392
 30
0.0
 10
14.562
 20
3.1392
 30
0.0
 10
14.562
 20
4.6025
 30
0.0
 10
14.562
 20
4.6025
 30
0.0
 10
14.562
 20
4.6025
 30
0.0
 10
14.562
 20
4.6025
 30
0.0
 10
14.7835
 20
4.6025
 30
0.0
 10
14.7835
 20
4.6025
 30
0.0
 10
14.7835
 20
4.6025
 30
0.0
 10
14.7835
 20
4.6025
 30
0.0
 10
14.7835
 20
4.3974
 30
0.0
 10
14.7835
 20
4.3974
 30
0.0
 10
14.7835
 20
4.3974
 30
0.0
 10
14.8296
 20
4.4689
 30
0.0
 10
14.8908
 20
4.5268
 30
0.0
 10
14.967
 20
4.5701
 30
0.0
 10
14.967
 20
4.5701
 30
0.0
 10
15.0432
 20
4.6138
 30
0.0
 10
15.1302
 20
4.6359
 30
0.0
 10
15.2275
 20
4.6359
 30
0.0
 10
15.2275
 20
4.6359
 30
0.0
 10
15.3357
 20
4.6359
 30
0.0
 10
15.4246
 20
4.6133
 30
0.0
 10
15.4938
 20
4.5682
 30
0.0
 10
15.4938
 20
4.5682
 30
0.0
 10
15.5634
 20
4.523
 30
0.0
 10
15.6123
 20
4.4605
 30
0.0
 10
15.6405
 20
4.3796
 30
0.0
 10
15.6405
 20
4.3796
 30
0.0
 10
15.7567
 20
4.5503
 30
0.0
 10
15.9072
 20
4.6359
 30
0.0
 10
16.0925
 20
4.6359
 30
0.0
 10
16.0925
 20
4.6359
 30
0.0
 10
16.2379
 20
4.6359
 30
0.0
 10
16.3494
 20
4.5955
 30
0.0
 10
16.4274
 20
4.515
 30
0.0
 10
16.4274
 20
4.515
 30
0.0
 10
16.5055
 20
4.4346
 30
0.0
 10
16.5446
 20
4.3109
 30
0.0
 10
16.5446
 20
4.1439
 30
0.0
 10
16.5446
 20
4.1439
 30
0.0
 10
16.5446
 20
4.1439
 30
0.0
 10
16.5446
 20
3.1392
 30
0.0
 10
16.5446
 20
3.1392
 30
0.0
 10
16.5446
 20
3.1392
 30
0.0
 10
16.5446
 20
3.1392
 30
0.0
 10
16.2981
 20
3.1392
 30
0.0
 10
16.2981
 20
3.1392
 30
0.0
 10
16.2981
 20
3.1392
 30
0.0
 10
16.2981
 20
3.1392
 30
0.0
 10
16.2981
 20
4.0611
 30
0.0
 10
16.2981
 20
4.0611
 30
0.0
 10
16.2981
 20
4.0611
 30
0.0
 10
16.2981
 20
4.1604
 30
0.0
 10
16.2901
 20
4.2319
 30
0.0
 10
16.2741
 20
4.2756
 30
0.0
 10
16.2741
 20
4.2756
 30
0.0
 10
16.2576
 20
4.3189
 30
0.0
 10
16.2285
 20
4.3542
 30
0.0
 10
16.1866
 20
4.381
 30
0.0
 10
16.1866
 20
4.381
 30
0.0
 10
16.1443
 20
4.4073
 30
0.0
 10
16.0944
 20
4.4209
 30
0.0
 10
16.0375
 20
4.4209
 30
0.0
 10
16.0375
 20
4.4209
 30
0.0
 10
15.9345
 20
4.4209
 30
0.0
 10
15.8494
 20
4.3866
 30
0.0
 10
15.7812
 20
4.3179
 30
0.0
 10
15.7812
 20
4.3179
 30
0.0
 10
15.7134
 20
4.2497
 30
0.0
 10
15.6791
 20
4.1401
 30
0.0
 10
15.6791
 20
3.9896
 30
0.0
 10
15.6791
 20
3.9896
 30
0.0
 10
15.6791
 20
3.9896
 30
0.0
 10
15.6791
 20
3.1392
 30
0.0
 10
15.6791
 20
3.1392
 30
0.0
 10
15.6791
 20
3.1392
 30
0.0
 10
15.6791
 20
3.1392
 30
0.0
 10
15.4312
 20
3.1392
 30
0.0
 10
15.4312
 20
3.1392
 30
0.0
 10
15.4312
 20
3.1392
 30
0.0
 10
15.4312
 20
3.1392
 30
0.0
 10
15.4312
 20
4.0898
 30
0.0
 10
15.4312
 20
4.0898
 30
0.0
 10
15.4312
 20
4.0898
 30
0.0
 10
15.4312
 20
4.2003
 30
0.0
 10
15.411
 20
4.2831
 30
0.0
 10
15.3705
 20
4.3382
 30
0.0
 10
15.3705
 20
4.3382
 30
0.0
 10
15.3301
 20
4.3932
 30
0.0
 10
15.2642
 20
4.4209
 30
0.0
 10
15.172
 20
4.4209
 30
0.0
 10
15.172
 20
4.4209
 30
0.0
 10
15.1024
 20
4.4209
 30
0.0
 10
15.038
 20
4.4026
 30
0.0
 10
14.9787
 20
4.3654
 30
0.0
 10
14.9787
 20
4.3654
 30
0.0
 10
14.9194
 20
4.3288
 30
0.0
 10
14.8762
 20
4.2751
 30
0.0
 10
14.8498
 20
4.2046
 30
0.0
 10
14.8498
 20
4.2046
 30
0.0
 10
14.823
 20
4.1336
 30
0.0
 10
14.8098
 20
4.0315
 30
0.0
 10
14.8098
 20
3.8984
 30
0.0
 10
14.8098
 20
3.8984
 30
0.0
 10
14.8098
 20
3.8984
 30
0.0
 10
14.8098
 20
3.1392
 30
0.0
 10
14.8098
 20
3.1392
 30
0.0
 10
14.8098
 20
3.1392
 30
0.0
 10
14.8098
 20
3.1392
 30
0.0
 10
14.562
 20
3.1392
 30
0.0
 10
14.562
 20
3.1392
 30
0.0
  0
SPLINE
  5
AB
330
1F
100
AcDbEntity
  8
ILUSTRACE
 62
   250
100
AcDbSpline
210
0.0
220
0.0
230
1.0
 70
    11
 71
     3
 72
   112
 73
   108
 74
     0
 42
0.0000000001
 43
0.0000000001
 40
0.0
 40
0.0
 40
0.0
 40
0.0
 40
0.0357142857142857
 40
0.0357142857142857
 40
0.0357142857142857
 40
0.0357142857142857
 40
0.0714285714285714
 40
0.0714285714285714
 40
0.0714285714285714
 40
0.0714285714285714
 40
0.1071428571428571
 40
0.1071428571428571
 40
0.1071428571428571
 40
0.1071428571428571
 40
0.1428571428571428
 40
0.1428571428571428
 40
0.1428571428571428
 40
0.1428571428571428
 40
0.1785714285714286
 40
0.1785714285714286
 40
0.1785714285714286
 40
0.1785714285714286
 40
0.2142857142857143
 40
0.2142857142857143
 40
0.2142857142857143
 40
0.2142857142857143
 40
0.25
 40
0.25
 40
0.25
 40
0.25
 40
0.2857142857142857
 40
0.2857142857142857
 40
0.2857142857142857
 40
0.2857142857142857
 40
0.3214285714285715
 40
0.3214285714285715
 40
0.3214285714285715
 40
0.3214285714285715
 40
0.3571428571428572
 40
0.3571428571428572
 40
0.3571428571428572
 40
0.3571428571428572
 40
0.3928571428571428
 40
0.3928571428571428
 40
0.3928571428571428
 40
0.3928571428571428
 40
0.4285714285714285
 40
0.4285714285714285
 40
0.4285714285714285
 40
0.4285714285714285
 40
0.4642857142857143
 40
0.4642857142857143
 40
0.4642857142857143
 40
0.4642857142857143
 40
0.5
 40
0.5
 40
0.5
 40
0.5
 40
0.5357142857142857
 40
0.5357142857142857
 40
0.5357142857142857
 40
0.5357142857142857
 40
0.5714285714285714
 40
0.5714285714285714
 40
0.5714285714285714
 40
0.5714285714285714
 40
0.6071428571428571
 40
0.6071428571428571
 40
0.6071428571428571
 40
0.6071428571428571
 40
0.6428571428571429
 40
0.6428571428571429
 40
0.6428571428571429
 40
0.6428571428571429
 40
0.6785714285714286
 40
0.6785714285714286
 40
0.6785714285714286
 40
0.6785714285714286
 40
0.7142857142857143
 40
0.7142857142857143
 40
0.7142857142857143
 40
0.7142857142857143
 40
0.75
 40
0.75
 40
0.75
 40
0.75
 40
0.7857142857142857
 40
0.7857142857142857
 40
0.7857142857142857
 40
0.7857142857142857
 40
0.8214285714285714
 40
0.8214285714285714
 40
0.8214285714285714
 40
0.8214285714285714
 40
0.8571428571428571
 40
0.8571428571428571
 40
0.8571428571428571
 40
0.8571428571428571
 40
0.8928571428571429
 40
0.8928571428571429
 40
0.8928571428571429
 40
0.8928571428571429
 40
0.9285714285714286
 40
0.9285714285714286
 40
0.9285714285714286
 40
0.9285714285714286
 40
1.0
 40
1.0
 40
1.0
 40
1.0
 10
17.8677
 20
3.3198
 30
0.0
 10
17.7755
 20
3.2417
 30
0.0
 10
17.6871
 20
3.1867
 30
0.0
 10
17.6024
 20
3.1543
 30
0.0
 10
17.6024
 20
3.1543
 30
0.0
 10
17.5173
 20
3.1223
 30
0.0
 10
17.426
 20
3.1063
 30
0.0
 10
17.3287
 20
3.1063
 30
0.0
 10
17.3287
 20
3.1063
 30
0.0
 10
17.1678
 20
3.1063
 30
0.0
 10
17.0446
 20
3.1453
 30
0.0
 10
16.958
 20
3.2239
 30
0.0
 10
16.958
 20
3.2239
 30
0.0
 10
16.8719
 20
3.3024
 30
0.0
 10
16.8287
 20
3.4031
 30
0.0
 10
16.8287
 20
3.5249
 30
0.0
 10
16.8287
 20
3.5249
 30
0.0
 10
16.8287
 20
3.5969
 30
0.0
 10
16.8447
 20
3.6622
 30
0.0
 10
16.8776
 20
3.7215
 30
0.0
 10
16.8776
 20
3.7215
 30
0.0
 10
16.91
 20
3.7808
 30
0.0
 10
16.9528
 20
3.8283
 30
0.0
 10
17.0055
 20
3.864
 30
0.0
 10
17.0055
 20
3.864
 30
0.0
 10
17.0587
 20
3.8998
 30
0.0
 10
17.1179
 20
3.9271
 30
0.0
 10
17.1843
 20
3.9454
 30
0.0
 10
17.1843
 20
3.9454
 30
0.0
 10
17.2327
 20
3.9581
 30
0.0
 10
17.3061
 20
3.9708
 30
0.0
 10
17.4044
 20
3.9826
 30
0.0
 10
17.4044
 20
3.9826
 30
0.0
 10
17.6048
 20
4.0066
 30
0.0
 10
17.7525
 20
4.0348
 30
0.0
 10
17.847
 20
4.0682
 30
0.0
 10
17.847
 20
4.0682
 30
0.0
 10
17.848
 20
4.102
 30
0.0
 10
17.8484
 20
4.1237
 30
0.0
 10
17.8484
 20
4.1326
 30
0.0
 10
17.8484
 20
4.1326
 30
0.0
 10
17.8484
 20
4.2337
 30
0.0
 10
17.8249
 20
4.3052
 30
0.0
 10
17.7779
 20
4.3462
 30
0.0
 10
17.7779
 20
4.3462
 30
0.0
 10
17.7148
 20
4.4026
 30
0.0
 10
17.6203
 20
4.4304
 30
0.0
 10
17.4956
 20
4.4304
 30
0.0
 10
17.4956
 20
4.4304
 30
0.0
 10
17.379
 20
4.4304
 30
0.0
 10
17.2929
 20
4.4101
 30
0.0
 10
17.2369
 20
4.3692
 30
0.0
 10
17.2369
 20
4.3692
 30
0.0
 10
17.1814
 20
4.3283
 30
0.0
 10
17.1405
 20
4.2559
 30
0.0
 10
17.1137
 20
4.1519
 30
0.0
 10
17.1137
 20
4.1519
 30
0.0
 10
17.1137
 20
4.1519
 30
0.0
 10
16.8715
 20
4.1853
 30
0.0
 10
16.8715
 20
4.1853
 30
0.0
 10
16.8715
 20
4.1853
 30
0.0
 10
16.8936
 20
4.2888
 30
0.0
 10
16.9298
 20
4.373
 30
0.0
 10
16.9801
 20
4.4365
 30
0.0
 10
16.9801
 20
4.4365
 30
0.0
 10
17.0305
 20
4.5004
 30
0.0
 10
17.1038
 20
4.5498
 30
0.0
 10
17.1993
 20
4.5842
 30
0.0
 10
17.1993
 20
4.5842
 30
0.0
 10
17.2948
 20
4.6185
 30
0.0
 10
17.4053
 20
4.6359
 30
0.0
 10
17.5314
 20
4.6359
 30
0.0
 10
17.5314
 20
4.6359
 30
0.0
 10
17.6565
 20
4.6359
 30
0.0
 10
17.7576
 20
4.6209
 30
0.0
 10
17.8357
 20
4.5917
 30
0.0
 10
17.8357
 20
4.5917
 30
0.0
 10
17.9138
 20
4.5621
 30
0.0
 10
17.9712
 20
4.5254
 30
0.0
 10
18.0083
 20
4.4807
 30
0.0
 10
18.0083
 20
4.4807
 30
0.0
 10
18.045
 20
4.436
 30
0.0
 10
18.0704
 20
4.38
 30
0.0
 10
18.0855
 20
4.3118
 30
0.0
 10
18.0855
 20
4.3118
 30
0.0
 10
18.0935
 20
4.2695
 30
0.0
 10
18.0977
 20
4.1933
 30
0.0
 10
18.0977
 20
4.0832
 30
0.0
 10
18.0977
 20
4.0832
 30
0.0
 10
18.0977
 20
4.0832
 30
0.0
 10
18.0977
 20
3.7526
 30
0.0
 10
18.0977
 20
3.7526
 30
0.0
 10
18.0977
 20
3.7526
 30
0.0
 10
18.0977
 20
3.5216
 30
0.0
 10
18.1029
 20
3.3758
 30
0.0
 10
18.1137
 20
3.3151
 30
0.0
 10
18.1137
 20
3.3151
 30
0.0
 10
18.1241
 20
3.254
 30
0.0
 10
18.1452
 20
3.1952
 30
0.0
 10
18.1763
 20
3.1392
 30
0.0
 10
18.1763
 20
3.1392
 30
0.0
 10
18.1763
 20
3.1392
 30
0.0
 10
17.9171
 20
3.1392
 30
0.0
 10
17.9171
 20
3.1392
 30
0.0
 10
17.9171
 20
3.1392
 30
0.0
 10
17.8917
 20
3.1905
 30
0.0
 10
17.8748
 20
3.2507
 30
0.0
 10
17.8677
 20
3.3198
 30
0.0
  0
SPLINE
  5
AC
330
1F
100
AcDbEntity
  8
ILUSTRACE
 62
   250
100
AcDbSpline
210
0.0
220
0.0
230
1.0
 70
    11
 71
     3
 72
    44
 73
    40
 74
     0
 42
0.0000000001
 43
0.0000000001
 40
0.0
 40
0.0
 40
0.0
 40
0.0
 40
0.0909090909090909
 40
0.0909090909090909
 40
0.0909090909090909
 40
0.0909090909090909
 40
0.1818181818181818
 40
0.1818181818181818
 40
0.1818181818181818
 40
0.1818181818181818
 40
0.2727272727272727
 40
0.2727272727272727
 40
0.2727272727272727
 40
0.2727272727272727
 40
0.3636363636363636
 40
0.3636363636363636
 40
0.3636363636363636
 40
0.3636363636363636
 40
0.4545454545454545
 40
0.4545454545454545
 40
0.4545454545454545
 40
0.4545454545454545
 40
0.5454545454545454
 40
0.5454545454545454
 40
0.5454545454545454
 40
0.5454545454545454
 40
0.6363636363636364
 40
0.6363636363636364
 40
0.6363636363636364
 40
0.6363636363636364
 40
0.7272727272727273
 40
0.7272727272727273
 40
0.7272727272727273
 40
0.7272727272727273
 40
0.8181818181818182
 40
0.8181818181818182
 40
0.8181818181818182
 40
0.8181818181818182
 40
1.0
 40
1.0
 40
1.0
 40
1.0
 10
17.847
 20
3.8739
 30
0.0
 10
17.7567
 20
3.8368
 30
0.0
 10
17.6217
 20
3.8057
 30
0.0
 10
17.442
 20
3.7798
 30
0.0
 10
17.442
 20
3.7798
 30
0.0
 10
17.34
 20
3.7653
 30
0.0
 10
17.2675
 20
3.7488
 30
0.0
 10
17.2257
 20
3.7305
 30
0.0
 10
17.2257
 20
3.7305
 30
0.0
 10
17.1833
 20
3.7121
 30
0.0
 10
17.1504
 20
3.6853
 30
0.0
 10
17.1278
 20
3.6495
 30
0.0
 10
17.1278
 20
3.6495
 30
0.0
 10
17.1048
 20
3.6143
 30
0.0
 10
17.093
 20
3.5752
 30
0.0
 10
17.093
 20
3.532
 30
0.0
 10
17.093
 20
3.532
 30
0.0
 10
17.093
 20
3.4656
 30
0.0
 10
17.1184
 20
3.4106
 30
0.0
 10
17.1683
 20
3.3664
 30
0.0
 10
17.1683
 20
3.3664
 30
0.0
 10
17.2181
 20
3.3226
 30
0.0
 10
17.2915
 20
3.3005
 30
0.0
 10
17.3879
 20
3.3005
 30
0.0
 10
17.3879
 20
3.3005
 30
0.0
 10
17.4834
 20
3.3005
 30
0.0
 10
17.5686
 20
3.3212
 30
0.0
 10
17.6429
 20
3.3631
 30
0.0
 10
17.6429
 20
3.3631
 30
0.0
 10
17.7172
 20
3.405
 30
0.0
 10
17.7722
 20
3.4623
 30
0.0
 10
17.807
 20
3.5348
 30
0.0
 10
17.807
 20
3.5348
 30
0.0
 10
17.8338
 20
3.5908
 30
0.0
 10
17.847
 20
3.6735
 30
0.0
 10
17.847
 20
3.7827
 30
0.0
 10
17.847
 20
3.7827
 30
0.0
 10
17.847
 20
3.7827
 30
0.0
 10
17.847
 20
3.8739
 30
0.0
 10
17.847
 20
3.8739
 30
0.0
  0
SPLINE
  5
AD
330
1F
100
AcDbEntity
  8
ILUSTRACE
 62
   250
100
AcDbSpline
210
0.0
220
0.0
230
1.0
 70
    11
 71
     3
 72
    64
 73
    60
 74
     0
 42
0.0000000001
 43
0.0000000001
 40
0.0
 40
0.0
 40
0.0
 40
0.0
 40
0.0625
 40
0.0625
 40
0.0625
 40
0.0625
 40
0.125
 40
0.125
 40
0.125
 40
0.125
 40
0.1875
 40
0.1875
 40
0.1875
 40
0.1875
 40
0.25
 40
0.25
 40
0.25
 40
0.25
 40
0.3125
 40
0.3125
 40
0.3125
 40
0.3125
 40
0.375
 40
0.375
 40
0.375
 40
0.375
 40
0.4375
 40
0.4375
 40
0.4375
 40
0.4375
 40
0.5
 40
0.5
 40
0.5
 40
0.5
 40
0.5625
 40
0.5625
 40
0.5625
 40
0.5625
 40
0.625
 40
0.625
 40
0.625
 40
0.625
 40
0.6875
 40
0.6875
 40
0.6875
 40
0.6875
 40
0.75
 40
0.75
 40
0.75
 40
0.75
 40
0.8125
 40
0.8125
 40
0.8125
 40
0.8125
 40
0.875
 40
0.875
 40
0.875
 40
0.875
 40
1.0
 40
1.0
 40
1.0
 40
1.0
 10
18.3169
 20
3.1392
 30
0.0
 10
18.3169
 20
3.1392
 30
0.0
 10
18.8517
 20
3.8998
 30
0.0
 10
18.8517
 20
3.8998
 30
0.0
 10
18.8517
 20
3.8998
 30
0.0
 10
18.8517
 20
3.8998
 30
0.0
 10
18.3569
 20
4.6025
 30
0.0
 10
18.3569
 20
4.6025
 30
0.0
 10
18.3569
 20
4.6025
 30
0.0
 10
18.3569
 20
4.6025
 30
0.0
 10
18.6668
 20
4.6025
 30
0.0
 10
18.6668
 20
4.6025
 30
0.0
 10
18.6668
 20
4.6025
 30
0.0
 10
18.6668
 20
4.6025
 30
0.0
 10
18.8917
 20
4.2596
 30
0.0
 10
18.8917
 20
4.2596
 30
0.0
 10
18.8917
 20
4.2596
 30
0.0
 10
18.9335
 20
4.1942
 30
0.0
 10
18.9679
 20
4.1397
 30
0.0
 10
18.9933
 20
4.0955
 30
0.0
 10
18.9933
 20
4.0955
 30
0.0
 10
19.0337
 20
4.1561
 30
0.0
 10
19.0709
 20
4.2098
 30
0.0
 10
19.1052
 20
4.2568
 30
0.0
 10
19.1052
 20
4.2568
 30
0.0
 10
19.1052
 20
4.2568
 30
0.0
 10
19.3517
 20
4.6025
 30
0.0
 10
19.3517
 20
4.6025
 30
0.0
 10
19.3517
 20
4.6025
 30
0.0
 10
19.3517
 20
4.6025
 30
0.0
 10
19.648
 20
4.6025
 30
0.0
 10
19.648
 20
4.6025
 30
0.0
 10
19.648
 20
4.6025
 30
0.0
 10
19.648
 20
4.6025
 30
0.0
 10
19.1424
 20
3.9134
 30
0.0
 10
19.1424
 20
3.9134
 30
0.0
 10
19.1424
 20
3.9134
 30
0.0
 10
19.1424
 20
3.9134
 30
0.0
 10
19.6866
 20
3.1392
 30
0.0
 10
19.6866
 20
3.1392
 30
0.0
 10
19.6866
 20
3.1392
 30
0.0
 10
19.6866
 20
3.1392
 30
0.0
 10
19.3823
 20
3.1392
 30
0.0
 10
19.3823
 20
3.1392
 30
0.0
 10
19.3823
 20
3.1392
 30
0.0
 10
19.3823
 20
3.1392
 30
0.0
 10
19.0817
 20
3.594
 30
0.0
 10
19.0817
 20
3.594
 30
0.0
 10
19.0817
 20
3.594
 30
0.0
 10
19.0817
 20
3.594
 30
0.0
 10
19.0018
 20
3.7168
 30
0.0
 10
19.0018
 20
3.7168
 30
0.0
 10
19.0018
 20
3.7168
 30
0.0
 10
19.0018
 20
3.7168
 30
0.0
 10
18.6175
 20
3.1392
 30
0.0
 10
18.6175
 20
3.1392
 30
0.0
 10
18.6175
 20
3.1392
 30
0.0
 10
18.6175
 20
3.1392
 30
0.0
 10
18.3169
 20
3.1392
 30
0.0
 10
18.3169
 20
3.1392
 30
0.0
  0
SPLINE
  5
AE
330
1F
100
AcDbEntity
  8
ILUSTRACE
 62
   250
100
AcDbSpline
210
0.0
220
0.0
230
1.0
 70
    11
 71
     3
 72
   124
 73
   120
 74
     0
 42
0.0000000001
 43
0.0000000001
 40
0.0
 40
0.0
 40
0.0
 40
0.0
 40
0.032258064516129
 40
0.032258064516129
 40
0.032258064516129
 40
0.032258064516129
 40
0.0645161290322581
 40
0.0645161290322581
 40
0.0645161290322581
 40
0.0645161290322581
 40
0.0967741935483871
 40
0.0967741935483871
 40
0.0967741935483871
 40
0.0967741935483871
 40
0.1290322580645161
 40
0.1290322580645161
 40
0.1290322580645161
 40
0.1290322580645161
 40
0.1612903225806452
 40
0.1612903225806452
 40
0.1612903225806452
 40
0.1612903225806452
 40
0.1935483870967742
 40
0.1935483870967742
 40
0.1935483870967742
 40
0.1935483870967742
 40
0.2258064516129032
 40
0.2258064516129032
 40
0.2258064516129032
 40
0.2258064516129032
 40
0.2580645161290323
 40
0.2580645161290323
 40
0.2580645161290323
 40
0.2580645161290323
 40
0.2903225806451613
 40
0.2903225806451613
 40
0.2903225806451613
 40
0.2903225806451613
 40
0.3225806451612903
 40
0.3225806451612903
 40
0.3225806451612903
 40
0.3225806451612903
 40
0.3548387096774194
 40
0.3548387096774194
 40
0.3548387096774194
 40
0.3548387096774194
 40
0.3870967741935484
 40
0.3870967741935484
 40
0.3870967741935484
 40
0.3870967741935484
 40
0.4193548387096774
 40
0.4193548387096774
 40
0.4193548387096774
 40
0.4193548387096774
 40
0.4516129032258064
 40
0.4516129032258064
 40
0.4516129032258064
 40
0.4516129032258064
 40
0.4838709677419355
 40
0.4838709677419355
 40
0.4838709677419355
 40
0.4838709677419355
 40
0.5161290322580645
 40
0.5161290322580645
 40
0.5161290322580645
 40
0.5161290322580645
 40
0.5483870967741935
 40
0.5483870967741935
 40
0.5483870967741935
 40
0.5483870967741935
 40
0.5806451612903226
 40
0.5806451612903226
 40
0.5806451612903226
 40
0.5806451612903226
 40
0.6129032258064516
 40
0.6129032258064516
 40
0.6129032258064516
 40
0.6129032258064516
 40
0.6451612903225806
 40
0.6451612903225806
 40
0.6451612903225806
 40
0.6451612903225806
 40
0.6774193548387096
 40
0.6774193548387096
 40
0.6774193548387096
 40
0.6774193548387096
 40
0.7096774193548387
 40
0.7096774193548387
 40
0.7096774193548387
 40
0.7096774193548387
 40
0.7419354838709677
 40
0.7419354838709677
 40
0.7419354838709677
 40
0.7419354838709677
 40
0.7741935483870968
 40
0.7741935483870968
 40
0.7741935483870968
 40
0.7741935483870968
 40
0.8064516129032258
 40
0.8064516129032258
 40
0.8064516129032258
 40
0.8064516129032258
 40
0.8387096774193549
 40
0.8387096774193549
 40
0.8387096774193549
 40
0.8387096774193549
 40
0.8709677419354839
 40
0.8709677419354839
 40
0.8709677419354839
 40
0.8709677419354839
 40
0.9032258064516129
 40
0.9032258064516129
 40
0.9032258064516129
 40
0.9032258064516129
 40
0.9354838709677419
 40
0.9354838709677419
 40
0.9354838709677419
 40
0.9354838709677419
 40
1.0
 40
1.0
 40
1.0
 40
1.0
 10
20.6099
 20
3.6726
 30
0.0
 10
20.6099
 20
3.6726
 30
0.0
 10
20.8578
 20
3.7055
 30
0.0
 10
20.8578
 20
3.7055
 30
0.0
 10
20.8578
 20
3.7055
 30
0.0
 10
20.8865
 20
3.5649
 30
0.0
 10
20.935
 20
3.4638
 30
0.0
 10
21.0032
 20
3.4017
 30
0.0
 10
21.0032
 20
3.4017
 30
0.0
 10
21.0718
 20
3.3396
 30
0.0
 10
21.1551
 20
3.3085
 30
0.0
 10
21.2534
 20
3.3085
 30
0.0
 10
21.2534
 20
3.3085
 30
0.0
 10
21.37
 20
3.3085
 30
0.0
 10
21.4688
 20
3.349
 30
0.0
 10
21.5493
 20
3.4299
 30
0.0
 10
21.5493
 20
3.4299
 30
0.0
 10
21.6292
 20
3.5108
 30
0.0
 10
21.6697
 20
3.611
 30
0.0
 10
21.6697
 20
3.7305
 30
0.0
 10
21.6697
 20
3.7305
 30
0.0
 10
21.6697
 20
3.8443
 30
0.0
 10
21.6325
 20
3.9384
 30
0.0
 10
21.5582
 20
4.0122
 30
0.0
 10
21.5582
 20
4.0122
 30
0.0
 10
21.4834
 20
4.086
 30
0.0
 10
21.3889
 20
4.1232
 30
0.0
 10
21.2741
 20
4.1232
 30
0.0
 10
21.2741
 20
4.1232
 30
0.0
 10
21.2271
 20
4.1232
 30
0.0
 10
21.1687
 20
4.1138
 30
0.0
 10
21.0991
 20
4.0955
 30
0.0
 10
21.0991
 20
4.0955
 30
0.0
 10
21.0991
 20
4.0955
 30
0.0
 10
21.1269
 20
4.3132
 30
0.0
 10
21.1269
 20
4.3132
 30
0.0
 10
21.1269
 20
4.3132
 30
0.0
 10
21.1433
 20
4.3114
 30
0.0
 10
21.1565
 20
4.3104
 30
0.0
 10
21.1668
 20
4.3104
 30
0.0
 10
21.1668
 20
4.3104
 30
0.0
 10
21.2722
 20
4.3104
 30
0.0
 10
21.3672
 20
4.3382
 30
0.0
 10
21.4519
 20
4.3932
 30
0.0
 10
21.4519
 20
4.3932
 30
0.0
 10
21.5366
 20
4.4482
 30
0.0
 10
21.5789
 20
4.5334
 30
0.0
 10
21.5789
 20
4.6481
 30
0.0
 10
21.5789
 20
4.6481
 30
0.0
 10
21.5789
 20
4.7389
 30
0.0
 10
21.5478
 20
4.8146
 30
0.0
 10
21.4862
 20
4.8739
 30
0.0
 10
21.4862
 20
4.8739
 30
0.0
 10
21.4246
 20
4.9336
 30
0.0
 10
21.3451
 20
4.9638
 30
0.0
 10
21.2477
 20
4.9638
 30
0.0
 10
21.2477
 20
4.9638
 30
0.0
 10
21.1513
 20
4.9638
 30
0.0
 10
21.0709
 20
4.9332
 30
0.0
 10
21.0069
 20
4.873
 30
0.0
 10
21.0069
 20
4.873
 30
0.0
 10
20.9425
 20
4.8123
 30
0.0
 10
20.9011
 20
4.721
 30
0.0
 10
20.8827
 20
4.5997
 30
0.0
 10
20.8827
 20
4.5997
 30
0.0
 10
20.8827
 20
4.5997
 30
0.0
 10
20.6349
 20
4.6439
 30
0.0
 10
20.6349
 20
4.6439
 30
0.0
 10
20.6349
 20
4.6439
 30
0.0
 10
20.665
 20
4.8104
 30
0.0
 10
20.7341
 20
4.9393
 30
0.0
 10
20.8414
 20
5.0305
 30
0.0
 10
20.8414
 20
5.0305
 30
0.0
 10
20.9491
 20
5.1218
 30
0.0
 10
21.0827
 20
5.1679
 30
0.0
 10
21.2426
 20
5.1679
 30
0.0
 10
21.2426
 20
5.1679
 30
0.0
 10
21.3526
 20
5.1679
 30
0.0
 10
21.4542
 20
5.1439
 30
0.0
 10
21.5469
 20
5.0969
 30
0.0
 10
21.5469
 20
5.0969
 30
0.0
 10
21.6396
 20
5.0494
 30
0.0
 10
21.7106
 20
4.9849
 30
0.0
 10
21.76
 20
4.9031
 30
0.0
 10
21.76
 20
4.9031
 30
0.0
 10
21.8089
 20
4.8212
 30
0.0
 10
21.8338
 20
4.7347
 30
0.0
 10
21.8338
 20
4.6425
 30
0.0
 10
21.8338
 20
4.6425
 30
0.0
 10
21.8338
 20
4.5555
 30
0.0
 10
21.8103
 20
4.476
 30
0.0
 10
21.7633
 20
4.404
 30
0.0
 10
21.7633
 20
4.404
 30
0.0
 10
21.7162
 20
4.3325
 30
0.0
 10
21.6471
 20
4.2756
 30
0.0
 10
21.5554
 20
4.2333
 30
0.0
 10
21.5554
 20
4.2333
 30
0.0
 10
21.6748
 20
4.206
 30
0.0
 10
21.7675
 20
4.1486
 30
0.0
 10
21.8338
 20
4.0616
 30
0.0
 10
21.8338
 20
4.0616
 30
0.0
 10
21.8997
 20
3.975
 30
0.0
 10
21.9326
 20
3.8664
 30
0.0
 10
21.9326
 20
3.7361
 30
0.0
 10
21.9326
 20
3.7361
 30
0.0
 10
21.9326
 20
3.5597
 30
0.0
 10
21.8686
 20
3.4101
 30
0.0
 10
21.7398
 20
3.2874
 30
0.0
 10
21.7398
 20
3.2874
 30
0.0
 10
21.6113
 20
3.1646
 30
0.0
 10
21.4486
 20
3.1035
 30
0.0
 10
21.252
 20
3.1035
 30
0.0
 10
21.252
 20
3.1035
 30
0.0
 10
21.0747
 20
3.1035
 30
0.0
 10
20.9274
 20
3.1561
 30
0.0
 10
20.8103
 20
3.262
 30
0.0
 10
20.8103
 20
3.262
 30
0.0
 10
20.6932
 20
3.3673
 30
0.0
 10
20.6264
 20
3.5042
 30
0.0
 10
20.6099
 20
3.6726
 30
0.0
  0
SPLINE
  5
AF
330
1F
100
AcDbEntity
  8
ILUSTRACE
 62
   250
100
AcDbSpline
210
0.0
220
0.0
230
1.0
 70
    11
 71
     3
 72
   124
 73
   120
 74
     0
 42
0.0000000001
 43
0.0000000001
 40
0.0
 40
0.0
 40
0.0
 40
0.0
 40
0.032258064516129
 40
0.032258064516129
 40
0.032258064516129
 40
0.032258064516129
 40
0.0645161290322581
 40
0.0645161290322581
 40
0.0645161290322581
 40
0.0645161290322581
 40
0.0967741935483871
 40
0.0967741935483871
 40
0.0967741935483871
 40
0.0967741935483871
 40
0.1290322580645161
 40
0.1290322580645161
 40
0.1290322580645161
 40
0.1290322580645161
 40
0.1612903225806452
 40
0.1612903225806452
 40
0.1612903225806452
 40
0.1612903225806452
 40
0.1935483870967742
 40
0.1935483870967742
 40
0.1935483870967742
 40
0.1935483870967742
 40
0.2258064516129032
 40
0.2258064516129032
 40
0.2258064516129032
 40
0.2258064516129032
 40
0.2580645161290323
 40
0.2580645161290323
 40
0.2580645161290323
 40
0.2580645161290323
 40
0.2903225806451613
 40
0.2903225806451613
 40
0.2903225806451613
 40
0.2903225806451613
 40
0.3225806451612903
 40
0.3225806451612903
 40
0.3225806451612903
 40
0.3225806451612903
 40
0.3548387096774194
 40
0.3548387096774194
 40
0.3548387096774194
 40
0.3548387096774194
 40
0.3870967741935484
 40
0.3870967741935484
 40
0.3870967741935484
 40
0.3870967741935484
 40
0.4193548387096774
 40
0.4193548387096774
 40
0.4193548387096774
 40
0.4193548387096774
 40
0.4516129032258064
 40
0.4516129032258064
 40
0.4516129032258064
 40
0.4516129032258064
 40
0.4838709677419355
 40
0.4838709677419355
 40
0.4838709677419355
 40
0.4838709677419355
 40
0.5161290322580645
 40
0.5161290322580645
 40
0.5161290322580645
 40
0.5161290322580645
 40
0.5483870967741935
 40
0.5483870967741935
 40
0.5483870967741935
 40
0.5483870967741935
 40
0.5806451612903226
 40
0.5806451612903226
 40
0.5806451612903226
 40
0.5806451612903226
 40
0.6129032258064516
 40
0.6129032258064516
 40
0.6129032258064516
 40
0.6129032258064516
 40
0.6451612903225806
 40
0.6451612903225806
 40
0.6451612903225806
 40
0.6451612903225806
 40
0.6774193548387096
 40
0.6774193548387096
 40
0.6774193548387096
 40
0.6774193548387096
 40
0.7096774193548387
 40
0.7096774193548387
 40
0.7096774193548387
 40
0.7096774193548387
 40
0.7419354838709677
 40
0.7419354838709677
 40
0.7419354838709677
 40
0.7419354838709677
 40
0.7741935483870968
 40
0.7741935483870968
 40
0.7741935483870968
 40
0.7741935483870968
 40
0.8064516129032258
 40
0.8064516129032258
 40
0.8064516129032258
 40
0.8064516129032258
 40
0.8387096774193549
 40
0.8387096774193549
 40
0.8387096774193549
 40
0.8387096774193549
 40
0.8709677419354839
 40
0.8709677419354839
 40
0.8709677419354839
 40
0.8709677419354839
 40
0.9032258064516129
 40
0.9032258064516129
 40
0.9032258064516129
 40
0.9032258064516129
 40
0.9354838709677419
 40
0.9354838709677419
 40
0.9354838709677419
 40
0.9354838709677419
 40
1.0
 40
1.0
 40
1.0
 40
1.0
 10
22.1795
 20
3.6726
 30
0.0
 10
22.1795
 20
3.6726
 30
0.0
 10
22.4274
 20
3.7055
 30
0.0
 10
22.4274
 20
3.7055
 30
0.0
 10
22.4274
 20
3.7055
 30
0.0
 10
22.4561
 20
3.5649
 30
0.0
 10
22.5046
 20
3.4638
 30
0.0
 10
22.5728
 20
3.4017
 30
0.0
 10
22.5728
 20
3.4017
 30
0.0
 10
22.6414
 20
3.3396
 30
0.0
 10
22.7247
 20
3.3085
 30
0.0
 10
22.823
 20
3.3085
 30
0.0
 10
22.823
 20
3.3085
 30
0.0
 10
22.9396
 20
3.3085
 30
0.0
 10
23.0384
 20
3.349
 30
0.0
 10
23.1189
 20
3.4299
 30
0.0
 10
23.1189
 20
3.4299
 30
0.0
 10
23.1988
 20
3.5108
 30
0.0
 10
23.2393
 20
3.611
 30
0.0
 10
23.2393
 20
3.7305
 30
0.0
 10
23.2393
 20
3.7305
 30
0.0
 10
23.2393
 20
3.8443
 30
0.0
 10
23.2021
 20
3.9384
 30
0.0
 10
23.1278
 20
4.0122
 30
0.0
 10
23.1278
 20
4.0122
 30
0.0
 10
23.053
 20
4.086
 30
0.0
 10
22.9585
 20
4.1232
 30
0.0
 10
22.8437
 20
4.1232
 30
0.0
 10
22.8437
 20
4.1232
 30
0.0
 10
22.7967
 20
4.1232
 30
0.0
 10
22.7383
 20
4.1138
 30
0.0
 10
22.6687
 20
4.0955
 30
0.0
 10
22.6687
 20
4.0955
 30
0.0
 10
22.6687
 20
4.0955
 30
0.0
 10
22.6965
 20
4.3132
 30
0.0
 10
22.6965
 20
4.3132
 30
0.0
 10
22.6965
 20
4.3132
 30
0.0
 10
22.7129
 20
4.3114
 30
0.0
 10
22.7261
 20
4.3104
 30
0.0
 10
22.7364
 20
4.3104
 30
0.0
 10
22.7364
 20
4.3104
 30
0.0
 10
22.8418
 20
4.3104
 30
0.0
 10
22.9368
 20
4.3382
 30
0.0
 10
23.0215
 20
4.3932
 30
0.0
 10
23.0215
 20
4.3932
 30
0.0
 10
23.1062
 20
4.4482
 30
0.0
 10
23.1485
 20
4.5334
 30
0.0
 10
23.1485
 20
4.6481
 30
0.0
 10
23.1485
 20
4.6481
 30
0.0
 10
23.1485
 20
4.7389
 30
0.0
 10
23.1174
 20
4.8146
 30
0.0
 10
23.0558
 20
4.8739
 30
0.0
 10
23.0558
 20
4.8739
 30
0.0
 10
22.9942
 20
4.9336
 30
0.0
 10
22.9147
 20
4.9638
 30
0.0
 10
22.8173
 20
4.9638
 30
0.0
 10
22.8173
 20
4.9638
 30
0.0
 10
22.7209
 20
4.9638
 30
0.0
 10
22.6405
 20
4.9332
 30
0.0
 10
22.5765
 20
4.873
 30
0.0
 10
22.5765
 20
4.873
 30
0.0
 10
22.5121
 20
4.8123
 30
0.0
 10
22.4707
 20
4.721
 30
0.0
 10
22.4523
 20
4.5997
 30
0.0
 10
22.4523
 20
4.5997
 30
0.0
 10
22.4523
 20
4.5997
 30
0.0
 10
22.2045
 20
4.6439
 30
0.0
 10
22.2045
 20
4.6439
 30
0.0
 10
22.2045
 20
4.6439
 30
0.0
 10
22.2346
 20
4.8104
 30
0.0
 10
22.3037
 20
4.9393
 30
0.0
 10
22.411
 20
5.0305
 30
0.0
 10
22.411
 20
5.0305
 30
0.0
 10
22.5187
 20
5.1218
 30
0.0
 10
22.6523
 20
5.1679
 30
0.0
 10
22.8122
 20
5.1679
 30
0.0
 10
22.8122
 20
5.1679
 30
0.0
 10
22.9222
 20
5.1679
 30
0.0
 10
23.0238
 20
5.1439
 30
0.0
 10
23.1165
 20
5.0969
 30
0.0
 10
23.1165
 20
5.0969
 30
0.0
 10
23.2092
 20
5.0494
 30
0.0
 10
23.2802
 20
4.9849
 30
0.0
 10
23.3296
 20
4.9031
 30
0.0
 10
23.3296
 20
4.9031
 30
0.0
 10
23.3785
 20
4.8212
 30
0.0
 10
23.4034
 20
4.7347
 30
0.0
 10
23.4034
 20
4.6425
 30
0.0
 10
23.4034
 20
4.6425
 30
0.0
 10
23.4034
 20
4.5555
 30
0.0
 10
23.3799
 20
4.476
 30
0.0
 10
23.3329
 20
4.404
 30
0.0
 10
23.3329
 20
4.404
 30
0.0
 10
23.2858
 20
4.3325
 30
0.0
 10
23.2167
 20
4.2756
 30
0.0
 10
23.125
 20
4.2333
 30
0.0
 10
23.125
 20
4.2333
 30
0.0
 10
23.2444
 20
4.206
 30
0.0
 10
23.3371
 20
4.1486
 30
0.0
 10
23.4034
 20
4.0616
 30
0.0
 10
23.4034
 20
4.0616
 30
0.0
 10
23.4693
 20
3.975
 30
0.0
 10
23.5022
 20
3.8664
 30
0.0
 10
23.5022
 20
3.7361
 30
0.0
 10
23.5022
 20
3.7361
 30
0.0
 10
23.5022
 20
3.5597
 30
0.0
 10
23.4382
 20
3.4101
 30
0.0
 10
23.3094
 20
3.2874
 30
0.0
 10
23.3094
 20
3.2874
 30
0.0
 10
23.1809
 20
3.1646
 30
0.0
 10
23.0182
 20
3.1035
 30
0.0
 10
22.8216
 20
3.1035
 30
0.0
 10
22.8216
 20
3.1035
 30
0.0
 10
22.6443
 20
3.1035
 30
0.0
 10
22.497
 20
3.1561
 30
0.0
 10
22.3799
 20
3.262
 30
0.0
 10
22.3799
 20
3.262
 30
0.0
 10
22.2628
 20
3.3673
 30
0.0
 10
22.196
 20
3.5042
 30
0.0
 10
22.1795
 20
3.6726
 30
0.0
  0
SPLINE
  5
B0
330
1F
100
AcDbEntity
  8
ILUSTRACE
 62
   250
100
AcDbSpline
210
0.0
220
0.0
230
1.0
 70
    11
 71
     3
 72
    52
 73
    48
 74
     0
 42
0.0000000001
 43
0.0000000001
 40
0.0
 40
0.0
 40
0.0
 40
0.0
 40
0.0769230769230769
 40
0.0769230769230769
 40
0.0769230769230769
 40
0.0769230769230769
 40
0.1538461538461539
 40
0.1538461538461539
 40
0.1538461538461539
 40
0.1538461538461539
 40
0.2307692307692308
 40
0.2307692307692308
 40
0.2307692307692308
 40
0.2307692307692308
 40
0.3076923076923077
 40
0.3076923076923077
 40
0.3076923076923077
 40
0.3076923076923077
 40
0.3846153846153846
 40
0.3846153846153846
 40
0.3846153846153846
 40
0.3846153846153846
 40
0.4615384615384616
 40
0.4615384615384616
 40
0.4615384615384616
 40
0.4615384615384616
 40
0.5384615384615384
 40
0.5384615384615384
 40
0.5384615384615384
 40
0.5384615384615384
 40
0.6153846153846154
 40
0.6153846153846154
 40
0.6153846153846154
 40
0.6153846153846154
 40
0.6923076923076923
 40
0.6923076923076923
 40
0.6923076923076923
 40
0.6923076923076923
 40
0.7692307692307693
 40
0.7692307692307693
 40
0.7692307692307693
 40
0.7692307692307693
 40
0.8461538461538461
 40
0.8461538461538461
 40
0.8461538461538461
 40
0.8461538461538461
 40
1.0
 40
1.0
 40
1.0
 40
1.0
 10
23.7477
 20
4.1354
 30
0.0
 10
23.7477
 20
4.3744
 30
0.0
 10
23.7722
 20
4.5668
 30
0.0
 10
23.8216
 20
4.7121
 30
0.0
 10
23.8216
 20
4.7121
 30
0.0
 10
23.8705
 20
4.8579
 30
0.0
 10
23.9439
 20
4.9703
 30
0.0
 10
24.0408
 20
5.0494
 30
0.0
 10
24.0408
 20
5.0494
 30
0.0
 10
24.1377
 20
5.1284
 30
0.0
 10
24.2595
 20
5.1679
 30
0.0
 10
24.4062
 20
5.1679
 30
0.0
 10
24.4062
 20
5.1679
 30
0.0
 10
24.5149
 20
5.1679
 30
0.0
 10
24.6099
 20
5.1458
 30
0.0
 10
24.6917
 20
5.102
 30
0.0
 10
24.6917
 20
5.102
 30
0.0
 10
24.7736
 20
5.0588
 30
0.0
 10
24.8409
 20
4.9957
 30
0.0
 10
24.8945
 20
4.9134
 30
0.0
 10
24.8945
 20
4.9134
 30
0.0
 10
24.9476
 20
4.8311
 30
0.0
 10
24.9895
 20
4.7309
 30
0.0
 10
25.0196
 20
4.6129
 30
0.0
 10
25.0196
 20
4.6129
 30
0.0
 10
25.0502
 20
4.4948
 30
0.0
 10
25.0652
 20
4.3358
 30
0.0
 10
25.0652
 20
4.1354
 30
0.0
 10
25.0652
 20
4.1354
 30
0.0
 10
25.0652
 20
3.8984
 30
0.0
 10
25.0408
 20
3.7074
 30
0.0
 10
24.9923
 20
3.5616
 30
0.0
 10
24.9923
 20
3.5616
 30
0.0
 10
24.9434
 20
3.4158
 30
0.0
 10
24.8705
 20
3.3034
 30
0.0
 10
24.7736
 20
3.2239
 30
0.0
 10
24.7736
 20
3.2239
 30
0.0
 10
24.6767
 20
3.1444
 30
0.0
 10
24.5544
 20
3.1049
 30
0.0
 10
24.4062
 20
3.1049
 30
0.0
 10
24.4062
 20
3.1049
 30
0.0
 10
24.2115
 20
3.1049
 30
0.0
 10
24.0586
 20
3.1745
 30
0.0
 10
23.9476
 20
3.3142
 30
0.0
 10
23.9476
 20
3.3142
 30
0.0
 10
23.8145
 20
3.4821
 30
0.0
 10
23.7477
 20
3.7563
 30
0.0
 10
23.7477
 20
4.1354
 30
0.0
  0
SPLINE
  5
B1
330
1F
100
AcDbEntity
  8
ILUSTRACE
 62
   250
100
AcDbSpline
210
0.0
220
0.0
230
1.0
 70
    11
 71
     3
 72
    36
 73
    32
 74
     0
 42
0.0000000001
 43
0.0000000001
 40
0.0
 40
0.0
 40
0.0
 40
0.0
 40
0.1111111111111111
 40
0.1111111111111111
 40
0.1111111111111111
 40
0.1111111111111111
 40
0.2222222222222222
 40
0.2222222222222222
 40
0.2222222222222222
 40
0.2222222222222222
 40
0.3333333333333333
 40
0.3333333333333333
 40
0.3333333333333333
 40
0.3333333333333333
 40
0.4444444444444444
 40
0.4444444444444444
 40
0.4444444444444444
 40
0.4444444444444444
 40
0.5555555555555556
 40
0.5555555555555556
 40
0.5555555555555556
 40
0.5555555555555556
 40
0.6666666666666666
 40
0.6666666666666666
 40
0.6666666666666666
 40
0.6666666666666666
 40
0.7777777777777778
 40
0.7777777777777778
 40
0.7777777777777778
 40
0.7777777777777778
 40
1.0
 40
1.0
 40
1.0
 40
1.0
 10
24.0027
 20
4.1354
 30
0.0
 10
24.0027
 20
3.8038
 30
0.0
 10
24.0417
 20
3.5832
 30
0.0
 10
24.1193
 20
3.4732
 30
0.0
 10
24.1193
 20
3.4732
 30
0.0
 10
24.1969
 20
3.3636
 30
0.0
 10
24.2924
 20
3.3085
 30
0.0
 10
24.4062
 20
3.3085
 30
0.0
 10
24.4062
 20
3.3085
 30
0.0
 10
24.5205
 20
3.3085
 30
0.0
 10
24.616
 20
3.364
 30
0.0
 10
24.6936
 20
3.4741
 30
0.0
 10
24.6936
 20
3.4741
 30
0.0
 10
24.7712
 20
3.5842
 30
0.0
 10
24.8103
 20
3.8048
 30
0.0
 10
24.8103
 20
4.1354
 30
0.0
 10
24.8103
 20
4.1354
 30
0.0
 10
24.8103
 20
4.468
 30
0.0
 10
24.7712
 20
4.6891
 30
0.0
 10
24.6936
 20
4.7982
 30
0.0
 10
24.6936
 20
4.7982
 30
0.0
 10
24.616
 20
4.9078
 30
0.0
 10
24.5196
 20
4.9623
 30
0.0
 10
24.4039
 20
4.9623
 30
0.0
 10
24.4039
 20
4.9623
 30
0.0
 10
24.2896
 20
4.9623
 30
0.0
 10
24.1988
 20
4.9139
 30
0.0
 10
24.1306
 20
4.8175
 30
0.0
 10
24.1306
 20
4.8175
 30
0.0
 10
24.0455
 20
4.6947
 30
0.0
 10
24.0027
 20
4.467
 30
0.0
 10
24.0027
 20
4.1354
 30
0.0
  0
SPLINE
  5
B2
330
1F
100
AcDbEntity
  8
ILUSTRACE
 62
   250
100
AcDbSpline
210
0.0
220
0.0
230
1.0
 70
    24
 71
     3
 72
     8
 73
     4
 74
     0
 42
0.0000000001
 43
0.0000000001
 40
0.0
 40
0.0
 40
0.0
 40
0.0
 40
1.0
 40
1.0
 40
1.0
 40
1.0
 10
40.5054
 20
-25.6504
 30
0.0
 10
40.5054
 20
-25.6504
 30
0.0
 10
45.8315
 20
-25.6504
 30
0.0
 10
45.8315
 20
-25.6504
 30
0.0
  0
SPLINE
  5
B3
330
1F
100
AcDbEntity
  8
ILUSTRACE
 62
   250
100
AcDbSpline
210
0.0
220
0.0
230
1.0
 70
    24
 71
     3
 72
     8
 73
     4
 74
     0
 42
0.0000000001
 43
0.0000000001
 40
0.0
 40
0.0
 40
0.0
 40
0.0
 40
1.0
 40
1.0
 40
1.0
 40
1.0
 10
40.4401
 20
-7.3047
 30
0.0
 10
40.4401
 20
-7.3047
 30
0.0
 10
45.8315
 20
-7.3047
 30
0.0
 10
45.8315
 20
-7.3047
 30
0.0
  0
SPLINE
  5
B4
330
1F
100
AcDbEntity
  8
ILUSTRACE
 62
   250
100
AcDbSpline
210
0.0
220
0.0
230
1.0
 70
    24
 71
     3
 72
     8
 73
     4
 74
     0
 42
0.0000000001
 43
0.0000000001
 40
0.0
 40
0.0
 40
0.0
 40
0.0
 40
1.0
 40
1.0
 40
1.0
 40
1.0
 10
45.5694
 20
-7.3047
 30
0.0
 10
45.5694
 20
-7.3047
 30
0.0
 10
45.5694
 20
-25.0859
 30
0.0
 10
45.5694
 20
-25.0859
 30
0.0
  0
SPLINE
  5
B5
330
1F
100
AcDbEntity
  8
ILUSTRACE
 62
   250
100
AcDbSpline
210
0.0
220
0.0
230
1.0
 70
    24
 71
     3
 72
     8
 73
     4
 74
     0
 42
0.0000000001
 43
0.0000000001
 40
0.0
 40
0.0
 40
0.0
 40
0.0
 40
1.0
 40
1.0
 40
1.0
 40
1.0
 10
21.467
 20
-0.6412
 30
0.0
 10
21.467
 20
-0.6412
 30
0.0
 10
21.467
 20
-24.7684
 30
0.0
 10
21.467
 20
-24.7684
 30
0.0
  0
SPLINE
  5
B6
330
1F
100
AcDbEntity
  8
ILUSTRACE
 62
   250
100
AcDbSpline
210
0.0
220
0.0
230
1.0
 70
    24
 71
     3
 72
     8
 73
     4
 74
     0
 42
0.0000000001
 43
0.0000000001
 40
0.0
 40
0.0
 40
0.0
 40
0.0
 40
1.0
 40
1.0
 40
1.0
 40
1.0
 10
-43.1975
 20
-29.234
 30
0.0
 10
-43.1975
 20
-29.234
 30
0.0
 10
-23.4723
 20
-29.234
 30
0.0
 10
-23.4723
 20
-29.234
 30
0.0
  0
SPLINE
  5
B7
330
1F
100
AcDbEntity
  8
ILUSTRACE
 62
   250
100
AcDbSpline
210
0.0
220
0.0
230
1.0
 70
    24
 71
     3
 72
     8
 73
     4
 74
     0
 42
0.0000000001
 43
0.0000000001
 40
0.0
 40
0.0
 40
0.0
 40
0.0
 40
1.0
 40
1.0
 40
1.0
 40
1.0
 10
-39.5456
 20
-40.235
 30
0.0
 10
-39.5456
 20
-40.235
 30
0.0
 10
-52.0324
 20
-40.235
 30
0.0
 10
-52.0324
 20
-40.235
 30
0.0
  0
SPLINE
  5
B8
330
1F
100
AcDbEntity
  8
ILUSTRACE
 62
   250
100
AcDbSpline
210
0.0
220
0.0
230
1.0
 70
    24
 71
     3
 72
     8
 73
     4
 74
     0
 42
0.0000000001
 43
0.0000000001
 40
0.0
 40
0.0
 40
0.0
 40
0.0
 40
1.0
 40
1.0
 40
1.0
 40
1.0
 10
-45.7454
 20
-4.1115
 30
0.0
 10
-45.7454
 20
-4.1115
 30
0.0
 10
-45.7454
 20
-39.5632
 30
0.0
 10
-45.7454
 20
-39.5632
 30
0.0
  0
SPLINE
  5
B9
330
1F
100
AcDbEntity
  8
ILUSTRACE
 62
   250
100
AcDbSpline
210
0.0
220
0.0
230
1.0
 70
    24
 71
     3
 72
     8
 73
     4
 74
     0
 42
0.0000000001
 43
0.0000000001
 40
0.0
 40
0.0
 40
0.0
 40
0.0
 40
1.0
 40
1.0
 40
1.0
 40
1.0
 10
-28.3699
 20
35.1225
 30
0.0
 10
-28.3699
 20
35.1225
 30
0.0
 10
-28.3699
 20
39.0539
 30
0.0
 10
-28.3699
 20
39.0539
 30
0.0
  0
SPLINE
  5
BA
330
1F
100
AcDbEntity
  8
ILUSTRACE
 62
   250
100
AcDbSpline
210
0.0
220
0.0
230
1.0
 70
    24
 71
     3
 72
     8
 73
     4
 74
     0
 42
0.0000000001
 43
0.0000000001
 40
0.0
 40
0.0
 40
0.0
 40
0.0
 40
1.0
 40
1.0
 40
1.0
 40
1.0
 10
-38.8532
 20
35.1225
 30
0.0
 10
-38.8532
 20
35.1225
 30
0.0
 10
-38.8532
 20
39.0124
 30
0.0
 10
-38.8532
 20
39.0124
 30
0.0
  0
SPLINE
  5
BB
330
1F
100
AcDbEntity
  8
ILUSTRACE
 62
   250
100
AcDbSpline
210
0.0
220
0.0
230
1.0
 70
    24
 71
     3
 72
     8
 73
     4
 74
     0
 42
0.0000000001
 43
0.0000000001
 40
0.0
 40
0.0
 40
0.0
 40
0.0
 40
1.0
 40
1.0
 40
1.0
 40
1.0
 10
-24.1762
 20
38.3018
 30
0.0
 10
-24.1762
 20
38.3018
 30
0.0
 10
-42.6996
 20
38.3018
 30
0.0
 10
-42.6996
 20
38.3018
 30
0.0
  0
SPLINE
  5
BC
330
1F
100
AcDbEntity
  8
ILUSTRACE
 62
   250
100
AcDbSpline
210
0.0
220
0.0
230
1.0
 70
    24
 71
     3
 72
     8
 73
     4
 74
     0
 42
0.0000000001
 43
0.0000000001
 40
0.0
 40
0.0
 40
0.0
 40
0.0
 40
1.0
 40
1.0
 40
1.0
 40
1.0
 10
-40.3142
 20
34.7783
 30
0.0
 10
-40.3142
 20
34.7783
 30
0.0
 10
-51.526
 20
34.7783
 30
0.0
 10
-51.526
 20
34.7783
 30
0.0
  0
SPLINE
  5
BD
330
1F
100
AcDbEntity
  8
ILUSTRACE
 62
   250
100
AcDbSpline
210
0.0
220
0.0
230
1.0
 70
    24
 71
     3
 72
     8
 73
     4
 74
     0
 42
0.0000000001
 43
0.0000000001
 40
0.0
 40
0.0
 40
0.0
 40
0.0
 40
1.0
 40
1.0
 40
1.0
 40
1.0
 10
53.0982
 20
2.9451
 30
0.0
 10
53.0982
 20
2.9451
 30
0.0
 10
53.0982
 20
-11.9733
 30
0.0
 10
53.0982
 20
-11.9733
 30
0.0
  0
SPLINE
  5
BE
330
1F
100
AcDbEntity
  8
ILUSTRACE
 62
   250
100
AcDbSpline
210
0.0
220
0.0
230
1.0
 70
    24
 71
     3
 72
     8
 73
     4
 74
     0
 42
0.0000000001
 43
0.0000000001
 40
0.0
 40
0.0
 40
0.0
 40
0.0
 40
1.0
 40
1.0
 40
1.0
 40
1.0
 10
-33.4421
 20
2.094
 30
0.0
 10
-33.4421
 20
2.094
 30
0.0
 10
52.7324
 20
2.094
 30
0.0
 10
52.7324
 20
2.094
 30
0.0
  0
SPLINE
  5
BF
330
1F
100
AcDbEntity
  8
ILUSTRACE
 62
   250
100
AcDbSpline
210
0.0
220
0.0
230
1.0
 70
    11
 71
     3
 72
    20
 73
    16
 74
     0
 42
0.0000000001
 43
0.0000000001
 40
0.0
 40
0.0
 40
0.0
 40
0.0
 40
0.2
 40
0.2
 40
0.2
 40
0.2
 40
0.4
 40
0.4
 40
0.4
 40
0.4
 40
0.6
 40
0.6
 40
0.6
 40
0.6
 40
1.0
 40
1.0
 40
1.0
 40
1.0
 10
45.0824
 20
-22.5434
 30
0.0
 10
45.0824
 20
-22.5434
 30
0.0
 10
45.5058
 20
-25.5434
 30
0.0
 10
45.5058
 20
-25.5434
 30
0.0
 10
45.5058
 20
-25.5434
 30
0.0
 10
45.5058
 20
-25.5434
 30
0.0
 10
45.5998
 20
-25.5434
 30
0.0
 10
45.5998
 20
-25.5434
 30
0.0
 10
45.5998
 20
-25.5434
 30
0.0
 10
45.5998
 20
-25.5434
 30
0.0
 10
46.0514
 20
-22.5434
 30
0.0
 10
46.0514
 20
-22.5434
 30
0.0
 10
46.0514
 20
-22.5434
 30
0.0
 10
46.0514
 20
-22.5434
 30
0.0
 10
45.0824
 20
-22.5434
 30
0.0
 10
45.0824
 20
-22.5434
 30
0.0
  0
SPLINE
  5
C0
330
1F
100
AcDbEntity
  8
ILUSTRACE
 62
   250
100
AcDbSpline
210
0.0
220
0.0
230
1.0
 70
    11
 71
     3
 72
    20
 73
    16
 74
     0
 42
0.0000000001
 43
0.0000000001
 40
0.0
 40
0.0
 40
0.0
 40
0.0
 40
0.2
 40
0.2
 40
0.2
 40
0.2
 40
0.4
 40
0.4
 40
0.4
 40
0.4
 40
0.6
 40
0.6
 40
0.6
 40
0.6
 40
1.0
 40
1.0
 40
1.0
 40
1.0
 10
46.035
 20
-10.3616
 30
0.0
 10
46.035
 20
-10.3616
 30
0.0
 10
45.6116
 20
-7.3615
 30
0.0
 10
45.6116
 20
-7.3615
 30
0.0
 10
45.6116
 20
-7.3615
 30
0.0
 10
45.6116
 20
-7.3615
 30
0.0
 10
45.5176
 20
-7.3615
 30
0.0
 10
45.5176
 20
-7.3615
 30
0.0
 10
45.5176
 20
-7.3615
 30
0.0
 10
45.5176
 20
-7.3615
 30
0.0
 10
45.066
 20
-10.3616
 30
0.0
 10
45.066
 20
-10.3616
 30
0.0
 10
45.066
 20
-10.3616
 30
0.0
 10
45.066
 20
-10.3616
 30
0.0
 10
46.035
 20
-10.3616
 30
0.0
 10
46.035
 20
-10.3616
 30
0.0
  0
SPLINE
  5
C1
330
1F
100
AcDbEntity
  8
ILUSTRACE
 62
   250
100
AcDbSpline
210
0.0
220
0.0
230
1.0
 70
    11
 71
     3
 72
    20
 73
    16
 74
     0
 42
0.0000000001
 43
0.0000000001
 40
0.0
 40
0.0
 40
0.0
 40
0.0
 40
0.2
 40
0.2
 40
0.2
 40
0.2
 40
0.4
 40
0.4
 40
0.4
 40
0.4
 40
0.6
 40
0.6
 40
0.6
 40
0.6
 40
1.0
 40
1.0
 40
1.0
 40
1.0
 10
20.9961
 20
-9.0597
 30
0.0
 10
20.9961
 20
-9.0597
 30
0.0
 10
21.4195
 20
-12.0597
 30
0.0
 10
21.4195
 20
-12.0597
 30
0.0
 10
21.4195
 20
-12.0597
 30
0.0
 10
21.4195
 20
-12.0597
 30
0.0
 10
21.5135
 20
-12.0597
 30
0.0
 10
21.5135
 20
-12.0597
 30
0.0
 10
21.5135
 20
-12.0597
 30
0.0
 10
21.5135
 20
-12.0597
 30
0.0
 10
21.965
 20
-9.0597
 30
0.0
 10
21.965
 20
-9.0597
 30
0.0
 10
21.965
 20
-9.0597
 30
0.0
 10
21.965
 20
-9.0597
 30
0.0
 10
20.9961
 20
-9.0597
 30
0.0
 10
20.9961
 20
-9.0597
 30
0.0
  0
SPLINE
  5
C2
330
1F
100
AcDbEntity
  8
ILUSTRACE
 62
   250
100
AcDbSpline
210
0.0
220
0.0
230
1.0
 70
    11
 71
     3
 72
    20
 73
    16
 74
     0
 42
0.0000000001
 43
0.0000000001
 40
0.0
 40
0.0
 40
0.0
 40
0.0
 40
0.2
 40
0.2
 40
0.2
 40
0.2
 40
0.4
 40
0.4
 40
0.4
 40
0.4
 40
0.6
 40
0.6
 40
0.6
 40
0.6
 40
1.0
 40
1.0
 40
1.0
 40
1.0
 10
21.9516
 20
-23.8235
 30
0.0
 10
21.9516
 20
-23.8235
 30
0.0
 10
21.5282
 20
-20.8234
 30
0.0
 10
21.5282
 20
-20.8234
 30
0.0
 10
21.5282
 20
-20.8234
 30
0.0
 10
21.5282
 20
-20.8234
 30
0.0
 10
21.4342
 20
-20.8234
 30
0.0
 10
21.4342
 20
-20.8234
 30
0.0
 10
21.4342
 20
-20.8234
 30
0.0
 10
21.4342
 20
-20.8234
 30
0.0
 10
20.9826
 20
-23.8235
 30
0.0
 10
20.9826
 20
-23.8235
 30
0.0
 10
20.9826
 20
-23.8235
 30
0.0
 10
20.9826
 20
-23.8235
 30
0.0
 10
21.9516
 20
-23.8235
 30
0.0
 10
21.9516
 20
-23.8235
 30
0.0
  0
SPLINE
  5
C3
330
1F
100
AcDbEntity
  8
ILUSTRACE
 62
   250
100
AcDbSpline
210
0.0
220
0.0
230
1.0
 70
    11
 71
     3
 72
    20
 73
    16
 74
     0
 42
0.0000000001
 43
0.0000000001
 40
0.0
 40
0.0
 40
0.0
 40
0.0
 40
0.2
 40
0.2
 40
0.2
 40
0.2
 40
0.4
 40
0.4
 40
0.4
 40
0.4
 40
0.6
 40
0.6
 40
0.6
 40
0.6
 40
1.0
 40
1.0
 40
1.0
 40
1.0
 10
-30.3395
 20
2.5649
 30
0.0
 10
-30.3395
 20
2.5649
 30
0.0
 10
-33.3396
 20
2.1415
 30
0.0
 10
-33.3396
 20
2.1415
 30
0.0
 10
-33.3396
 20
2.1415
 30
0.0
 10
-33.3396
 20
2.1415
 30
0.0
 10
-33.3396
 20
2.0475
 30
0.0
 10
-33.3396
 20
2.0475
 30
0.0
 10
-33.3396
 20
2.0475
 30
0.0
 10
-33.3396
 20
2.0475
 30
0.0
 10
-30.3395
 20
1.5959
 30
0.0
 10
-30.3395
 20
1.5959
 30
0.0
 10
-30.3395
 20
1.5959
 30
0.0
 10
-30.3395
 20
1.5959
 30
0.0
 10
-30.3395
 20
2.5649
 30
0.0
 10
-30.3395
 20
2.5649
 30
0.0
  0
SPLINE
  5
C4
330
1F
100
AcDbEntity
  8
ILUSTRACE
 62
   250
100
AcDbSpline
210
0.0
220
0.0
230
1.0
 70
    11
 71
     3
 72
    20
 73
    16
 74
     0
 42
0.0000000001
 43
0.0000000001
 40
0.0
 40
0.0
 40
0.0
 40
0.0
 40
0.2
 40
0.2
 40
0.2
 40
0.2
 40
0.4
 40
0.4
 40
0.4
 40
0.4
 40
0.6
 40
0.6
 40
0.6
 40
0.6
 40
1.0
 40
1.0
 40
1.0
 40
1.0
 10
50.0484
 20
1.6334
 30
0.0
 10
50.0484
 20
1.6334
 30
0.0
 10
53.0484
 20
2.0568
 30
0.0
 10
53.0484
 20
2.0568
 30
0.0
 10
53.0484
 20
2.0568
 30
0.0
 10
53.0484
 20
2.0568
 30
0.0
 10
53.0484
 20
2.1509
 30
0.0
 10
53.0484
 20
2.1509
 30
0.0
 10
53.0484
 20
2.1509
 30
0.0
 10
53.0484
 20
2.1509
 30
0.0
 10
50.0484
 20
2.6024
 30
0.0
 10
50.0484
 20
2.6024
 30
0.0
 10
50.0484
 20
2.6024
 30
0.0
 10
50.0484
 20
2.6024
 30
0.0
 10
50.0484
 20
1.6334
 30
0.0
 10
50.0484
 20
1.6334
 30
0.0
  0
SPLINE
  5
C5
330
1F
100
AcDbEntity
  8
ILUSTRACE
 62
   250
100
AcDbSpline
210
0.0
220
0.0
230
1.0
 70
    11
 71
     3
 72
    20
 73
    16
 74
     0
 42
0.0000000001
 43
0.0000000001
 40
0.0
 40
0.0
 40
0.0
 40
0.0
 40
0.2
 40
0.2
 40
0.2
 40
0.2
 40
0.4
 40
0.4
 40
0.4
 40
0.4
 40
0.6
 40
0.6
 40
0.6
 40
0.6
 40
1.0
 40
1.0
 40
1.0
 40
1.0
 10
-46.2116
 20
-37.0998
 30
0.0
 10
-46.2116
 20
-37.0998
 30
0.0
 10
-45.7882
 20
-40.0997
 30
0.0
 10
-45.7882
 20
-40.0997
 30
0.0
 10
-45.7882
 20
-40.0997
 30
0.0
 10
-45.7882
 20
-40.0997
 30
0.0
 10
-45.6942
 20
-40.0997
 30
0.0
 10
-45.6942
 20
-40.0997
 30
0.0
 10
-45.6942
 20
-40.0997
 30
0.0
 10
-45.6942
 20
-40.0997
 30
0.0
 10
-45.2426
 20
-37.0998
 30
0.0
 10
-45.2426
 20
-37.0998
 30
0.0
 10
-45.2426
 20
-37.0998
 30
0.0
 10
-45.2426
 20
-37.0998
 30
0.0
 10
-46.2116
 20
-37.0998
 30
0.0
 10
-46.2116
 20
-37.0998
 30
0.0
  0
SPLINE
  5
C6
330
1F
100
AcDbEntity
  8
ILUSTRACE
 62
   250
100
AcDbSpline
210
0.0
220
0.0
230
1.0
 70
    11
 71
     3
 72
    20
 73
    16
 74
     0
 42
0.0000000001
 43
0.0000000001
 40
0.0
 40
0.0
 40
0.0
 40
0.0
 40
0.2
 40
0.2
 40
0.2
 40
0.2
 40
0.4
 40
0.4
 40
0.4
 40
0.4
 40
0.6
 40
0.6
 40
0.6
 40
0.6
 40
1.0
 40
1.0
 40
1.0
 40
1.0
 10
-51.5521
 20
-13.3725
 30
0.0
 10
-51.5521
 20
-13.3725
 30
0.0
 10
-51.1287
 20
-16.3725
 30
0.0
 10
-51.1287
 20
-16.3725
 30
0.0
 10
-51.1287
 20
-16.3725
 30
0.0
 10
-51.1287
 20
-16.3725
 30
0.0
 10
-51.0347
 20
-16.3725
 30
0.0
 10
-51.0347
 20
-16.3725
 30
0.0
 10
-51.0347
 20
-16.3725
 30
0.0
 10
-51.0347
 20
-16.3725
 30
0.0
 10
-50.5831
 20
-13.3725
 30
0.0
 10
-50.5831
 20
-13.3725
 30
0.0
 10
-50.5831
 20
-13.3725
 30
0.0
 10
-50.5831
 20
-13.3725
 30
0.0
 10
-51.5521
 20
-13.3725
 30
0.0
 10
-51.5521
 20
-13.3725
 30
0.0
  0
SPLINE
  5
C7
330
1F
100
AcDbEntity
  8
ILUSTRACE
 62
   250
100
AcDbSpline
210
0.0
220
0.0
230
1.0
 70
    11
 71
     3
 72
    20
 73
    16
 74
     0
 42
0.0000000001
 43
0.0000000001
 40
0.0
 40
0.0
 40
0.0
 40
0.0
 40
0.2
 40
0.2
 40
0.2
 40
0.2
 40
0.4
 40
0.4
 40
0.4
 40
0.4
 40
0.6
 40
0.6
 40
0.6
 40
0.6
 40
1.0
 40
1.0
 40
1.0
 40
1.0
 10
-45.2516
 20
-6.8714
 30
0.0
 10
-45.2516
 20
-6.8714
 30
0.0
 10
-45.6749
 20
-3.8714
 30
0.0
 10
-45.6749
 20
-3.8714
 30
0.0
 10
-45.6749
 20
-3.8714
 30
0.0
 10
-45.6749
 20
-3.8714
 30
0.0
 10
-45.769
 20
-3.8714
 30
0.0
 10
-45.769
 20
-3.8714
 30
0.0
 10
-45.769
 20
-3.8714
 30
0.0
 10
-45.769
 20
-3.8714
 30
0.0
 10
-46.2205
 20
-6.8714
 30
0.0
 10
-46.2205
 20
-6.8714
 30
0.0
 10
-46.2205
 20
-6.8714
 30
0.0
 10
-46.2205
 20
-6.8714
 30
0.0
 10
-45.2516
 20
-6.8714
 30
0.0
 10
-45.2516
 20
-6.8714
 30
0.0
  0
SPLINE
  5
C8
330
1F
100
AcDbEntity
  8
ILUSTRACE
 62
   250
100
AcDbSpline
210
0.0
220
0.0
230
1.0
 70
    11
 71
     3
 72
    20
 73
    16
 74
     0
 42
0.0000000001
 43
0.0000000001
 40
0.0
 40
0.0
 40
0.0
 40
0.0
 40
0.2
 40
0.2
 40
0.2
 40
0.2
 40
0.4
 40
0.4
 40
0.4
 40
0.4
 40
0.6
 40
0.6
 40
0.6
 40
0.6
 40
1.0
 40
1.0
 40
1.0
 40
1.0
 10
-50.5903
 20
29.4618
 30
0.0
 10
-50.5903
 20
29.4618
 30
0.0
 10
-51.0137
 20
32.4618
 30
0.0
 10
-51.0137
 20
32.4618
 30
0.0
 10
-51.0137
 20
32.4618
 30
0.0
 10
-51.0137
 20
32.4618
 30
0.0
 10
-51.1078
 20
32.4618
 30
0.0
 10
-51.1078
 20
32.4618
 30
0.0
 10
-51.1078
 20
32.4618
 30
0.0
 10
-51.1078
 20
32.4618
 30
0.0
 10
-51.5593
 20
29.4618
 30
0.0
 10
-51.5593
 20
29.4618
 30
0.0
 10
-51.5593
 20
29.4618
 30
0.0
 10
-51.5593
 20
29.4618
 30
0.0
 10
-50.5903
 20
29.4618
 30
0.0
 10
-50.5903
 20
29.4618
 30
0.0
  0
SPLINE
  5
C9
330
1F
100
AcDbEntity
  8
ILUSTRACE
 62
   250
100
AcDbSpline
210
0.0
220
0.0
230
1.0
 70
    11
 71
     3
 72
    20
 73
    16
 74
     0
 42
0.0000000001
 43
0.0000000001
 40
0.0
 40
0.0
 40
0.0
 40
0.0
 40
0.2
 40
0.2
 40
0.2
 40
0.2
 40
0.4
 40
0.4
 40
0.4
 40
0.4
 40
0.6
 40
0.6
 40
0.6
 40
0.6
 40
1.0
 40
1.0
 40
1.0
 40
1.0
 10
-24.7015
 20
-28.7602
 30
0.0
 10
-24.7015
 20
-28.7602
 30
0.0
 10
-27.7014
 20
-29.1836
 30
0.0
 10
-27.7014
 20
-29.1836
 30
0.0
 10
-27.7014
 20
-29.1836
 30
0.0
 10
-27.7014
 20
-29.1836
 30
0.0
 10
-27.7014
 20
-29.2776
 30
0.0
 10
-27.7014
 20
-29.2776
 30
0.0
 10
-27.7014
 20
-29.2776
 30
0.0
 10
-27.7014
 20
-29.2776
 30
0.0
 10
-24.7015
 20
-29.7291
 30
0.0
 10
-24.7015
 20
-29.7291
 30
0.0
 10
-24.7015
 20
-29.7291
 30
0.0
 10
-24.7015
 20
-29.7291
 30
0.0
 10
-24.7015
 20
-28.7602
 30
0.0
 10
-24.7015
 20
-28.7602
 30
0.0
  0
SPLINE
  5
CA
330
1F
100
AcDbEntity
  8
ILUSTRACE
 62
   250
100
AcDbSpline
210
0.0
220
0.0
230
1.0
 70
    11
 71
     3
 72
    20
 73
    16
 74
     0
 42
0.0000000001
 43
0.0000000001
 40
0.0
 40
0.0
 40
0.0
 40
0.0
 40
0.2
 40
0.2
 40
0.2
 40
0.2
 40
0.4
 40
0.4
 40
0.4
 40
0.4
 40
0.6
 40
0.6
 40
0.6
 40
0.6
 40
1.0
 40
1.0
 40
1.0
 40
1.0
 10
-42.3748
 20
-29.7004
 30
0.0
 10
-42.3748
 20
-29.7004
 30
0.0
 10
-39.3748
 20
-29.277
 30
0.0
 10
-39.3748
 20
-29.277
 30
0.0
 10
-39.3748
 20
-29.277
 30
0.0
 10
-39.3748
 20
-29.277
 30
0.0
 10
-39.3748
 20
-29.183
 30
0.0
 10
-39.3748
 20
-29.183
 30
0.0
 10
-39.3748
 20
-29.183
 30
0.0
 10
-39.3748
 20
-29.183
 30
0.0
 10
-42.3748
 20
-28.7314
 30
0.0
 10
-42.3748
 20
-28.7314
 30
0.0
 10
-42.3748
 20
-28.7314
 30
0.0
 10
-42.3748
 20
-28.7314
 30
0.0
 10
-42.3748
 20
-29.7004
 30
0.0
 10
-42.3748
 20
-29.7004
 30
0.0
  0
SPLINE
  5
CB
330
1F
100
AcDbEntity
  8
ILUSTRACE
 62
   250
100
AcDbSpline
210
0.0
220
0.0
230
1.0
 70
    11
 71
     3
 72
    20
 73
    16
 74
     0
 42
0.0000000001
 43
0.0000000001
 40
0.0
 40
0.0
 40
0.0
 40
0.0
 40
0.2
 40
0.2
 40
0.2
 40
0.2
 40
0.4
 40
0.4
 40
0.4
 40
0.4
 40
0.6
 40
0.6
 40
0.6
 40
0.6
 40
1.0
 40
1.0
 40
1.0
 40
1.0
 10
-25.2892
 20
38.7916
 30
0.0
 10
-25.2892
 20
38.7916
 30
0.0
 10
-28.2892
 20
38.3682
 30
0.0
 10
-28.2892
 20
38.3682
 30
0.0
 10
-28.2892
 20
38.3682
 30
0.0
 10
-28.2892
 20
38.3682
 30
0.0
 10
-28.2892
 20
38.2742
 30
0.0
 10
-28.2892
 20
38.2742
 30
0.0
 10
-28.2892
 20
38.2742
 30
0.0
 10
-28.2892
 20
38.2742
 30
0.0
 10
-25.2892
 20
37.8227
 30
0.0
 10
-25.2892
 20
37.8227
 30
0.0
 10
-25.2892
 20
37.8227
 30
0.0
 10
-25.2892
 20
37.8227
 30
0.0
 10
-25.2892
 20
38.7916
 30
0.0
 10
-25.2892
 20
38.7916
 30
0.0
  0
SPLINE
  5
CC
330
1F
100
AcDbEntity
  8
ILUSTRACE
 62
   250
100
AcDbSpline
210
0.0
220
0.0
230
1.0
 70
    11
 71
     3
 72
    20
 73
    16
 74
     0
 42
0.0000000001
 43
0.0000000001
 40
0.0
 40
0.0
 40
0.0
 40
0.0
 40
0.2
 40
0.2
 40
0.2
 40
0.2
 40
0.4
 40
0.4
 40
0.4
 40
0.4
 40
0.6
 40
0.6
 40
0.6
 40
0.6
 40
1.0
 40
1.0
 40
1.0
 40
1.0
 10
-41.9112
 20
37.8497
 30
0.0
 10
-41.9112
 20
37.8497
 30
0.0
 10
-38.9113
 20
38.2731
 30
0.0
 10
-38.9113
 20
38.2731
 30
0.0
 10
-38.9113
 20
38.2731
 30
0.0
 10
-38.9113
 20
38.2731
 30
0.0
 10
-38.9113
 20
38.3671
 30
0.0
 10
-38.9113
 20
38.3671
 30
0.0
 10
-38.9113
 20
38.3671
 30
0.0
 10
-38.9113
 20
38.3671
 30
0.0
 10
-41.9112
 20
38.8187
 30
0.0
 10
-41.9112
 20
38.8187
 30
0.0
 10
-41.9112
 20
38.8187
 30
0.0
 10
-41.9112
 20
38.8187
 30
0.0
 10
-41.9112
 20
37.8497
 30
0.0
 10
-41.9112
 20
37.8497
 30
0.0
  0
SPLINE
  5
CD
330
1F
100
AcDbEntity
  8
ILUSTRACE
  6
NEW_LINE1
 62
   250
100
AcDbSpline
210
0.0
220
0.0
230
1.0
 70
    24
 71
     3
 72
     8
 73
     4
 74
     0
 42
0.0000000001
 43
0.0000000001
 40
0.0
 40
0.0
 40
0.0
 40
0.0
 40
1.0
 40
1.0
 40
1.0
 40
1.0
 10
-33.5761
 20
36.2948
 30
0.0
 10
-33.5761
 20
36.2948
 30
0.0
 10
-33.5761
 20
-25.5355
 30
0.0
 10
-33.5761
 20
-25.5355
 30
0.0
  0
SPLINE
  5
CF
330
1F
100
AcDbEntity
  8
ILUSTRACE
  6
NEW_LINE2
 62
   250
100
AcDbSpline
210
0.0
220
0.0
230
1.0
 70
    24
 71
     3
 72
     8
 73
     4
 74
     0
 42
0.0000000001
 43
0.0000000001
 40
0.0
 40
0.0
 40
0.0
 40
0.0
 40
1.0
 40
1.0
 40
1.0
 40
1.0
 10
-34.6688
 20
-16.4203
 30
0.0
 10
-34.6688
 20
-16.4203
 30
0.0
 10
42.3011
 20
-16.4203
 30
0.0
 10
42.3011
 20
-16.4203
 30
0.0
  0
SPLINE
  5
D1
330
1F
100
AcDbEntity
  8
ILUSTRACE
 62
   250
100
AcDbSpline
210
0.0
220
0.0
230
1.0
 70
    11
 71
     3
 72
    92
 73
    88
 74
     0
 42
0.0000000001
 43
0.0000000001
 40
0.0
 40
0.0
 40
0.0
 40
0.0
 40
0.0434782608695652
 40
0.0434782608695652
 40
0.0434782608695652
 40
0.0434782608695652
 40
0.0869565217391304
 40
0.0869565217391304
 40
0.0869565217391304
 40
0.0869565217391304
 40
0.1304347826086956
 40
0.1304347826086956
 40
0.1304347826086956
 40
0.1304347826086956
 40
0.1739130434782609
 40
0.1739130434782609
 40
0.1739130434782609
 40
0.1739130434782609
 40
0.2173913043478261
 40
0.2173913043478261
 40
0.2173913043478261
 40
0.2173913043478261
 40
0.2608695652173913
 40
0.2608695652173913
 40
0.2608695652173913
 40
0.2608695652173913
 40
0.3043478260869565
 40
0.3043478260869565
 40
0.3043478260869565
 40
0.3043478260869565
 40
0.3478260869565217
 40
0.3478260869565217
 40
0.3478260869565217
 40
0.3478260869565217
 40
0.391304347826087
 40
0.391304347826087
 40
0.391304347826087
 40
0.391304347826087
 40
0.4347826086956522
 40
0.4347826086956522
 40
0.4347826086956522
 40
0.4347826086956522
 40
0.4782608695652174
 40
0.4782608695652174
 40
0.4782608695652174
 40
0.4782608695652174
 40
0.5217391304347826
 40
0.5217391304347826
 40
0.5217391304347826
 40
0.5217391304347826
 40
0.5652173913043478
 40
0.5652173913043478
 40
0.5652173913043478
 40
0.5652173913043478
 40
0.6086956521739131
 40
0.6086956521739131
 40
0.6086956521739131
 40
0.6086956521739131
 40
0.6521739130434783
 40
0.6521739130434783
 40
0.6521739130434783
 40
0.6521739130434783
 40
0.6956521739130435
 40
0.6956521739130435
 40
0.6956521739130435
 40
0.6956521739130435
 40
0.7391304347826086
 40
0.7391304347826086
 40
0.7391304347826086
 40
0.7391304347826086
 40
0.782608695652174
 40
0.782608695652174
 40
0.782608695652174
 40
0.782608695652174
 40
0.8260869565217391
 40
0.8260869565217391
 40
0.8260869565217391
 40
0.8260869565217391
 40
0.8695652173913043
 40
0.8695652173913043
 40
0.8695652173913043
 40
0.8695652173913043
 40
0.9130434782608695
 40
0.9130434782608695
 40
0.9130434782608695
 40
0.9130434782608695
 40
1.0
 40
1.0
 40
1.0
 40
1.0
 10
-51.8871
 20
-28.8982
 30
0.0
 10
-51.8871
 20
-28.8982
 30
0.0
 10
-51.9092
 20
-28.6597
 30
0.0
 10
-51.9092
 20
-28.6597
 30
0.0
 10
-51.9092
 20
-28.6597
 30
0.0
 10
-51.7972
 20
-28.6395
 30
0.0
 10
-51.7159
 20
-28.6009
 30
0.0
 10
-51.6651
 20
-28.544
 30
0.0
 10
-51.6651
 20
-28.544
 30
0.0
 10
-51.6147
 20
-28.4871
 30
0.0
 10
-51.5893
 20
-28.4142
 30
0.0
 10
-51.5893
 20
-28.3248
 30
0.0
 10
-51.5893
 20
-28.3248
 30
0.0
 10
-51.5893
 20
-28.2486
 30
0.0
 10
-51.6067
 20
-28.1819
 30
0.0
 10
-51.642
 20
-28.1245
 30
0.0
 10
-51.642
 20
-28.1245
 30
0.0
 10
-51.6768
 20
-28.0671
 30
0.0
 10
-51.7234
 20
-28.02
 30
0.0
 10
-51.7817
 20
-27.9834
 30
0.0
 10
-51.7817
 20
-27.9834
 30
0.0
 10
-51.84
 20
-27.9462
 30
0.0
 10
-51.9191
 20
-27.9156
 30
0.0
 10
-52.0178
 20
-27.8907
 30
0.0
 10
-52.0178
 20
-27.8907
 30
0.0
 10
-52.1171
 20
-27.8662
 30
0.0
 10
-52.2182
 20
-27.8535
 30
0.0
 10
-52.3212
 20
-27.8535
 30
0.0
 10
-52.3212
 20
-27.8535
 30
0.0
 10
-52.332
 20
-27.8535
 30
0.0
 10
-52.349
 20
-27.854
 30
0.0
 10
-52.3706
 20
-27.8549
 30
0.0
 10
-52.3706
 20
-27.8549
 30
0.0
 10
-52.2921
 20
-27.9048
 30
0.0
 10
-52.2276
 20
-27.9725
 30
0.0
 10
-52.1787
 20
-28.0581
 30
0.0
 10
-52.1787
 20
-28.0581
 30
0.0
 10
-52.1293
 20
-28.1442
 30
0.0
 10
-52.1049
 20
-28.2374
 30
0.0
 10
-52.1049
 20
-28.3371
 30
0.0
 10
-52.1049
 20
-28.3371
 30
0.0
 10
-52.1049
 20
-28.5045
 30
0.0
 10
-52.1655
 20
-28.6461
 30
0.0
 10
-52.2869
 20
-28.7618
 30
0.0
 10
-52.2869
 20
-28.7618
 30
0.0
 10
-52.4082
 20
-28.8775
 30
0.0
 10
-52.5677
 20
-28.9354
 30
0.0
 10
-52.7662
 20
-28.9354
 30
0.0
 10
-52.7662
 20
-28.9354
 30
0.0
 10
-52.9713
 20
-28.9354
 30
0.0
 10
-53.1359
 20
-28.8752
 30
0.0
 10
-53.261
 20
-28.7543
 30
0.0
 10
-53.261
 20
-28.7543
 30
0.0
 10
-53.3861
 20
-28.6334
 30
0.0
 10
-53.4487
 20
-28.4819
 30
0.0
 10
-53.4487
 20
-28.2999
 30
0.0
 10
-53.4487
 20
-28.2999
 30
0.0
 10
-53.4487
 20
-28.1687
 30
0.0
 10
-53.4129
 20
-28.0487
 30
0.0
 10
-53.3424
 20
-27.9396
 30
0.0
 10
-53.3424
 20
-27.9396
 30
0.0
 10
-53.2718
 20
-27.831
 30
0.0
 10
-53.1707
 20
-27.7482
 30
0.0
 10
-53.0399
 20
-27.6917
 30
0.0
 10
-53.0399
 20
-27.6917
 30
0.0
 10
-52.9092
 20
-27.6353
 30
0.0
 10
-52.7196
 20
-27.6071
 30
0.0
 10
-52.4713
 20
-27.6071
 30
0.0
 10
-52.4713
 20
-27.6071
 30
0.0
 10
-52.2135
 20
-27.6071
 30
0.0
 10
-52.008
 20
-27.6348
 30
0.0
 10
-51.8546
 20
-27.6908
 30
0.0
 10
-51.8546
 20
-27.6908
 30
0.0
 10
-51.7017
 20
-27.7472
 30
0.0
 10
-51.5856
 20
-27.8305
 30
0.0
 10
-51.5056
 20
-27.941
 30
0.0
 10
-51.5056
 20
-27.941
 30
0.0
 10
-51.4256
 20
-28.052
 30
0.0
 10
-51.3857
 20
-28.1814
 30
0.0
 10
-51.3857
 20
-28.3305
 30
0.0
 10
-51.3857
 20
-28.3305
 30
0.0
 10
-51.3857
 20
-28.4885
 30
0.0
 10
-51.4294
 20
-28.6174
 30
0.0
 10
-51.5174
 20
-28.7176
 30
0.0
 10
-51.5174
 20
-28.7176
 30
0.0
 10
-51.6049
 20
-28.8178
 30
0.0
 10
-51.7281
 20
-28.878
 30
0.0
 10
-51.8871
 20
-28.8982
 30
0.0
  0
SPLINE
  5
D2
330
1F
100
AcDbEntity
  8
ILUSTRACE
 62
   250
100
AcDbSpline
210
0.0
220
0.0
230
1.0
 70
    11
 71
     3
 72
    36
 73
    32
 74
     0
 42
0.0000000001
 43
0.0000000001
 40
0.0
 40
0.0
 40
0.0
 40
0.0
 40
0.1111111111111111
 40
0.1111111111111111
 40
0.1111111111111111
 40
0.1111111111111111
 40
0.2222222222222222
 40
0.2222222222222222
 40
0.2222222222222222
 40
0.2222222222222222
 40
0.3333333333333333
 40
0.3333333333333333
 40
0.3333333333333333
 40
0.3333333333333333
 40
0.4444444444444444
 40
0.4444444444444444
 40
0.4444444444444444
 40
0.4444444444444444
 40
0.5555555555555556
 40
0.5555555555555556
 40
0.5555555555555556
 40
0.5555555555555556
 40
0.6666666666666666
 40
0.6666666666666666
 40
0.6666666666666666
 40
0.6666666666666666
 40
0.7777777777777778
 40
0.7777777777777778
 40
0.7777777777777778
 40
0.7777777777777778
 40
1.0
 40
1.0
 40
1.0
 40
1.0
 10
-52.7789
 20
-27.8827
 30
0.0
 10
-52.9209
 20
-27.8827
 30
0.0
 10
-53.0343
 20
-27.9203
 30
0.0
 10
-53.1176
 20
-27.9961
 30
0.0
 10
-53.1176
 20
-27.9961
 30
0.0
 10
-53.2013
 20
-28.0723
 30
0.0
 10
-53.2431
 20
-28.163
 30
0.0
 10
-53.2431
 20
-28.2698
 30
0.0
 10
-53.2431
 20
-28.2698
 30
0.0
 10
-53.2431
 20
-28.3799
 30
0.0
 10
-53.198
 20
-28.4758
 30
0.0
 10
-53.1081
 20
-28.5577
 30
0.0
 10
-53.1081
 20
-28.5577
 30
0.0
 10
-53.0178
 20
-28.6395
 30
0.0
 10
-52.9012
 20
-28.6804
 30
0.0
 10
-52.7582
 20
-28.6804
 30
0.0
 10
-52.7582
 20
-28.6804
 30
0.0
 10
-52.6293
 20
-28.6804
 30
0.0
 10
-52.5249
 20
-28.6414
 30
0.0
 10
-52.4445
 20
-28.5638
 30
0.0
 10
-52.4445
 20
-28.5638
 30
0.0
 10
-52.364
 20
-28.4862
 30
0.0
 10
-52.324
 20
-28.3907
 30
0.0
 10
-52.324
 20
-28.2769
 30
0.0
 10
-52.324
 20
-28.2769
 30
0.0
 10
-52.324
 20
-28.1616
 30
0.0
 10
-52.364
 20
-28.0676
 30
0.0
 10
-52.4445
 20
-27.9937
 30
0.0
 10
-52.4445
 20
-27.9937
 30
0.0
 10
-52.5249
 20
-27.9194
 30
0.0
 10
-52.6364
 20
-27.8827
 30
0.0
 10
-52.7789
 20
-27.8827
 30
0.0
  0
SPLINE
  5
D3
330
1F
100
AcDbEntity
  8
ILUSTRACE
 62
   250
100
AcDbSpline
210
0.0
220
0.0
230
1.0
 70
    11
 71
     3
 72
    52
 73
    48
 74
     0
 42
0.0000000001
 43
0.0000000001
 40
0.0
 40
0.0
 40
0.0
 40
0.0
 40
0.0769230769230769
 40
0.0769230769230769
 40
0.0769230769230769
 40
0.0769230769230769
 40
0.1538461538461539
 40
0.1538461538461539
 40
0.1538461538461539
 40
0.1538461538461539
 40
0.2307692307692308
 40
0.2307692307692308
 40
0.2307692307692308
 40
0.2307692307692308
 40
0.3076923076923077
 40
0.3076923076923077
 40
0.3076923076923077
 40
0.3076923076923077
 40
0.3846153846153846
 40
0.3846153846153846
 40
0.3846153846153846
 40
0.3846153846153846
 40
0.4615384615384616
 40
0.4615384615384616
 40
0.4615384615384616
 40
0.4615384615384616
 40
0.5384615384615384
 40
0.5384615384615384
 40
0.5384615384615384
 40
0.5384615384615384
 40
0.6153846153846154
 40
0.6153846153846154
 40
0.6153846153846154
 40
0.6153846153846154
 40
0.6923076923076923
 40
0.6923076923076923
 40
0.6923076923076923
 40
0.6923076923076923
 40
0.7692307692307693
 40
0.7692307692307693
 40
0.7692307692307693
 40
0.7692307692307693
 40
0.8461538461538461
 40
0.8461538461538461
 40
0.8461538461538461
 40
0.8461538461538461
 40
1.0
 40
1.0
 40
1.0
 40
1.0
 10
-52.4162
 20
-27.3658
 30
0.0
 10
-52.6552
 20
-27.3658
 30
0.0
 10
-52.8476
 20
-27.3413
 30
0.0
 10
-52.9929
 20
-27.2919
 30
0.0
 10
-52.9929
 20
-27.2919
 30
0.0
 10
-53.1387
 20
-27.243
 30
0.0
 10
-53.2511
 20
-27.1696
 30
0.0
 10
-53.3302
 20
-27.0727
 30
0.0
 10
-53.3302
 20
-27.0727
 30
0.0
 10
-53.4092
 20
-26.9758
 30
0.0
 10
-53.4487
 20
-26.854
 30
0.0
 10
-53.4487
 20
-26.7073
 30
0.0
 10
-53.4487
 20
-26.7073
 30
0.0
 10
-53.4487
 20
-26.5986
 30
0.0
 10
-53.4266
 20
-26.5036
 30
0.0
 10
-53.3828
 20
-26.4218
 30
0.0
 10
-53.3828
 20
-26.4218
 30
0.0
 10
-53.3396
 20
-26.3399
 30
0.0
 10
-53.2765
 20
-26.2726
 30
0.0
 10
-53.1942
 20
-26.219
 30
0.0
 10
-53.1942
 20
-26.219
 30
0.0
 10
-53.1119
 20
-26.1659
 30
0.0
 10
-53.0117
 20
-26.124
 30
0.0
 10
-52.8937
 20
-26.0939
 30
0.0
 10
-52.8937
 20
-26.0939
 30
0.0
 10
-52.7756
 20
-26.0633
 30
0.0
 10
-52.6166
 20
-26.0483
 30
0.0
 10
-52.4162
 20
-26.0483
 30
0.0
 10
-52.4162
 20
-26.0483
 30
0.0
 10
-52.1792
 20
-26.0483
 30
0.0
 10
-51.9882
 20
-26.0727
 30
0.0
 10
-51.8424
 20
-26.1212
 30
0.0
 10
-51.8424
 20
-26.1212
 30
0.0
 10
-51.6966
 20
-26.1701
 30
0.0
 10
-51.5842
 20
-26.243
 30
0.0
 10
-51.5047
 20
-26.3399
 30
0.0
 10
-51.5047
 20
-26.3399
 30
0.0
 10
-51.4252
 20
-26.4368
 30
0.0
 10
-51.3857
 20
-26.5591
 30
0.0
 10
-51.3857
 20
-26.7073
 30
0.0
 10
-51.3857
 20
-26.7073
 30
0.0
 10
-51.3857
 20
-26.902
 30
0.0
 10
-51.4553
 20
-27.0549
 30
0.0
 10
-51.595
 20
-27.1659
 30
0.0
 10
-51.595
 20
-27.1659
 30
0.0
 10
-51.7629
 20
-27.299
 30
0.0
 10
-52.0371
 20
-27.3658
 30
0.0
 10
-52.4162
 20
-27.3658
 30
0.0
  0
SPLINE
  5
D4
330
1F
100
AcDbEntity
  8
ILUSTRACE
 62
   250
100
AcDbSpline
210
0.0
220
0.0
230
1.0
 70
    11
 71
     3
 72
    36
 73
    32
 74
     0
 42
0.0000000001
 43
0.0000000001
 40
0.0
 40
0.0
 40
0.0
 40
0.0
 40
0.1111111111111111
 40
0.1111111111111111
 40
0.1111111111111111
 40
0.1111111111111111
 40
0.2222222222222222
 40
0.2222222222222222
 40
0.2222222222222222
 40
0.2222222222222222
 40
0.3333333333333333
 40
0.3333333333333333
 40
0.3333333333333333
 40
0.3333333333333333
 40
0.4444444444444444
 40
0.4444444444444444
 40
0.4444444444444444
 40
0.4444444444444444
 40
0.5555555555555556
 40
0.5555555555555556
 40
0.5555555555555556
 40
0.5555555555555556
 40
0.6666666666666666
 40
0.6666666666666666
 40
0.6666666666666666
 40
0.6666666666666666
 40
0.7777777777777778
 40
0.7777777777777778
 40
0.7777777777777778
 40
0.7777777777777778
 40
1.0
 40
1.0
 40
1.0
 40
1.0
 10
-52.4162
 20
-27.1108
 30
0.0
 10
-52.0846
 20
-27.1108
 30
0.0
 10
-51.864
 20
-27.0718
 30
0.0
 10
-51.754
 20
-26.9942
 30
0.0
 10
-51.754
 20
-26.9942
 30
0.0
 10
-51.6444
 20
-26.9166
 30
0.0
 10
-51.5893
 20
-26.8211
 30
0.0
 10
-51.5893
 20
-26.7073
 30
0.0
 10
-51.5893
 20
-26.7073
 30
0.0
 10
-51.5893
 20
-26.593
 30
0.0
 10
-51.6448
 20
-26.4975
 30
0.0
 10
-51.7549
 20
-26.4199
 30
0.0
 10
-51.7549
 20
-26.4199
 30
0.0
 10
-51.865
 20
-26.3423
 30
0.0
 10
-52.0856
 20
-26.3032
 30
0.0
 10
-52.4162
 20
-26.3032
 30
0.0
 10
-52.4162
 20
-26.3032
 30
0.0
 10
-52.7488
 20
-26.3032
 30
0.0
 10
-52.9699
 20
-26.3423
 30
0.0
 10
-53.079
 20
-26.4199
 30
0.0
 10
-53.079
 20
-26.4199
 30
0.0
 10
-53.1886
 20
-26.4975
 30
0.0
 10
-53.2431
 20
-26.5939
 30
0.0
 10
-53.2431
 20
-26.7096
 30
0.0
 10
-53.2431
 20
-26.7096
 30
0.0
 10
-53.2431
 20
-26.8239
 30
0.0
 10
-53.1947
 20
-26.9147
 30
0.0
 10
-53.0983
 20
-26.9829
 30
0.0
 10
-53.0983
 20
-26.9829
 30
0.0
 10
-52.9755
 20
-27.068
 30
0.0
 10
-52.7478
 20
-27.1108
 30
0.0
 10
-52.4162
 20
-27.1108
 30
0.0
  0
SPLINE
  5
D5
330
1F
100
AcDbEntity
  8
ILUSTRACE
 62
   250
100
AcDbSpline
210
0.0
220
0.0
230
1.0
 70
    24
 71
     3
 72
     8
 73
     4
 74
     0
 42
0.0000000001
 43
0.0000000001
 40
0.0
 40
0.0
 40
0.0
 40
0.0
 40
1.0
 40
1.0
 40
1.0
 40
1.0
 10
-51.0859
 20
-16.7983
 30
0.0
 10
-51.0859
 20
-16.7983
 30
0.0
 10
-51.0859
 20
-39.7548
 30
0.0
 10
-51.0859
 20
-39.7548
 30
0.0
  0
SPLINE
  5
D6
330
1F
100
AcDbEntity
  8
ILUSTRACE
 62
   250
100
AcDbSpline
210
0.0
220
0.0
230
1.0
 70
    11
 71
     3
 72
    20
 73
    16
 74
     0
 42
0.0000000001
 43
0.0000000001
 40
0.0
 40
0.0
 40
0.0
 40
0.0
 40
0.2
 40
0.2
 40
0.2
 40
0.2
 40
0.4
 40
0.4
 40
0.4
 40
0.4
 40
0.6
 40
0.6
 40
0.6
 40
0.6
 40
1.0
 40
1.0
 40
1.0
 40
1.0
 10
-51.57
 20
-37.125
 30
0.0
 10
-51.57
 20
-37.125
 30
0.0
 10
-51.1466
 20
-40.125
 30
0.0
 10
-51.1466
 20
-40.125
 30
0.0
 10
-51.1466
 20
-40.125
 30
0.0
 10
-51.1466
 20
-40.125
 30
0.0
 10
-51.0526
 20
-40.125
 30
0.0
 10
-51.0526
 20
-40.125
 30
0.0
 10
-51.0526
 20
-40.125
 30
0.0
 10
-51.0526
 20
-40.125
 30
0.0
 10
-50.601
 20
-37.125
 30
0.0
 10
-50.601
 20
-37.125
 30
0.0
 10
-50.601
 20
-37.125
 30
0.0
 10
-50.601
 20
-37.125
 30
0.0
 10
-51.57
 20
-37.125
 30
0.0
 10
-51.57
 20
-37.125
 30
0.0
  0
SPLINE
  5
D7
330
1F
100
AcDbEntity
  8
ILUSTRACE
 62
   250
100
AcDbSpline
210
0.0
220
0.0
230
1.0
 70
    11
 71
     3
 72
    20
 73
    16
 74
     0
 42
0.0000000001
 43
0.0000000001
 40
0.0
 40
0.0
 40
0.0
 40
0.0
 40
0.2
 40
0.2
 40
0.2
 40
0.2
 40
0.4
 40
0.4
 40
0.4
 40
0.4
 40
0.6
 40
0.6
 40
0.6
 40
0.6
 40
1.0
 40
1.0
 40
1.0
 40
1.0
 10
-50.631
 20
-19.3737
 30
0.0
 10
-50.631
 20
-19.3737
 30
0.0
 10
-51.0543
 20
-16.3737
 30
0.0
 10
-51.0543
 20
-16.3737
 30
0.0
 10
-51.0543
 20
-16.3737
 30
0.0
 10
-51.0543
 20
-16.3737
 30
0.0
 10
-51.1484
 20
-16.3737
 30
0.0
 10
-51.1484
 20
-16.3737
 30
0.0
 10
-51.1484
 20
-16.3737
 30
0.0
 10
-51.1484
 20
-16.3737
 30
0.0
 10
-51.5999
 20
-19.3737
 30
0.0
 10
-51.5999
 20
-19.3737
 30
0.0
 10
-51.5999
 20
-19.3737
 30
0.0
 10
-51.5999
 20
-19.3737
 30
0.0
 10
-50.631
 20
-19.3737
 30
0.0
 10
-50.631
 20
-19.3737
 30
0.0
  0
SPLINE
  5
D8
330
1F
100
AcDbEntity
  8
ILUSTRACE
 62
   250
100
AcDbSpline
210
0.0
220
0.0
230
1.0
 70
    24
 71
     3
 72
     8
 73
     4
 74
     0
 42
0.0000000001
 43
0.0000000001
 40
0.0
 40
0.0
 40
0.0
 40
0.0
 40
1.0
 40
1.0
 40
1.0
 40
1.0
 10
-34.9904
 20
-16.3978
 30
0.0
 10
-34.9904
 20
-16.3978
 30
0.0
 10
-45.0658
 20
-16.3978
 30
0.0
 10
-45.0658
 20
-16.3978
 30
0.0
  0
SPLINE
  5
D9
330
1F
100
AcDbEntity
  8
ILUSTRACE
 62
   250
100
AcDbSpline
210
0.0
220
0.0
230
1.0
 70
    24
 71
     3
 72
     8
 73
     4
 74
     0
 42
0.0000000001
 43
0.0000000001
 40
0.0
 40
0.0
 40
0.0
 40
0.0
 40
1.0
 40
1.0
 40
1.0
 40
1.0
 10
-51.0708
 20
39.4001
 30
0.0
 10
-51.0708
 20
39.4001
 30
0.0
 10
-51.0708
 20
-16.4065
 30
0.0
 10
-51.0708
 20
-16.4065
 30
0.0
  0
SPLINE
  5
DA
330
1F
100
AcDbEntity
  8
ILUSTRACE
 62
   250
100
AcDbSpline
210
0.0
220
0.0
230
1.0
 70
    24
 71
     3
 72
     8
 73
     4
 74
     0
 42
0.0000000001
 43
0.0000000001
 40
0.0
 40
0.0
 40
0.0
 40
0.0
 40
1.0
 40
1.0
 40
1.0
 40
1.0
 10
-39.4807
 20
-3.8053
 30
0.0
 10
-39.4807
 20
-3.8053
 30
0.0
 10
-46.2577
 20
-3.8053
 30
0.0
 10
-46.2577
 20
-3.8053
 30
0.0
  0
SPLINE
  5
DB
330
1F
100
AcDbEntity
  8
ILUSTRACE
 62
   250
100
AcDbSpline
210
0.0
220
0.0
230
1.0
 70
    11
 71
     3
 72
    68
 73
    64
 74
     0
 42
0.0000000001
 43
0.0000000001
 40
0.0
 40
0.0
 40
0.0
 40
0.0
 40
0.0588235294117647
 40
0.0588235294117647
 40
0.0588235294117647
 40
0.0588235294117647
 40
0.1176470588235294
 40
0.1176470588235294
 40
0.1176470588235294
 40
0.1176470588235294
 40
0.1764705882352941
 40
0.1764705882352941
 40
0.1764705882352941
 40
0.1764705882352941
 40
0.2352941176470588
 40
0.2352941176470588
 40
0.2352941176470588
 40
0.2352941176470588
 40
0.2941176470588235
 40
0.2941176470588235
 40
0.2941176470588235
 40
0.2941176470588235
 40
0.3529411764705883
 40
0.3529411764705883
 40
0.3529411764705883
 40
0.3529411764705883
 40
0.4117647058823529
 40
0.4117647058823529
 40
0.4117647058823529
 40
0.4117647058823529
 40
0.4705882352941176
 40
0.4705882352941176
 40
0.4705882352941176
 40
0.4705882352941176
 40
0.5294117647058824
 40
0.5294117647058824
 40
0.5294117647058824
 40
0.5294117647058824
 40
0.5882352941176471
 40
0.5882352941176471
 40
0.5882352941176471
 40
0.5882352941176471
 40
0.6470588235294118
 40
0.6470588235294118
 40
0.6470588235294118
 40
0.6470588235294118
 40
0.7058823529411765
 40
0.7058823529411765
 40
0.7058823529411765
 40
0.7058823529411765
 40
0.7647058823529411
 40
0.7647058823529411
 40
0.7647058823529411
 40
0.7647058823529411
 40
0.8235294117647058
 40
0.8235294117647058
 40
0.8235294117647058
 40
0.8235294117647058
 40
0.8823529411764706
 40
0.8823529411764706
 40
0.8823529411764706
 40
0.8823529411764706
 40
1.0
 40
1.0
 40
1.0
 40
1.0
 10
-53.0149
 20
33.539
 30
0.0
 10
-53.0525
 20
33.4359
 30
0.0
 10
-53.1061
 20
33.3597
 30
0.0
 10
-53.1762
 20
33.3099
 30
0.0
 10
-53.1762
 20
33.3099
 30
0.0
 10
-53.2458
 20
33.2605
 30
0.0
 10
-53.3296
 20
33.2356
 30
0.0
 10
-53.4269
 20
33.2356
 30
0.0
 10
-53.4269
 20
33.2356
 30
0.0
 10
-53.5741
 20
33.2356
 30
0.0
 10
-53.6974
 20
33.2883
 30
0.0
 10
-53.7976
 20
33.3941
 30
0.0
 10
-53.7976
 20
33.3941
 30
0.0
 10
-53.8978
 20
33.4999
 30
0.0
 10
-53.9481
 20
33.6401
 30
0.0
 10
-53.9481
 20
33.8155
 30
0.0
 10
-53.9481
 20
33.8155
 30
0.0
 10
-53.9481
 20
33.9919
 30
0.0
 10
-53.8968
 20
34.134
 30
0.0
 10
-53.7943
 20
34.2417
 30
0.0
 10
-53.7943
 20
34.2417
 30
0.0
 10
-53.6917
 20
34.3489
 30
0.0
 10
-53.5671
 20
34.4026
 30
0.0
 10
-53.4199
 20
34.4026
 30
0.0
 10
-53.4199
 20
34.4026
 30
0.0
 10
-53.3263
 20
34.4026
 30
0.0
 10
-53.2449
 20
34.3781
 30
0.0
 10
-53.1753
 20
34.3292
 30
0.0
 10
-53.1753
 20
34.3292
 30
0.0
 10
-53.1061
 20
34.2798
 30
0.0
 10
-53.0525
 20
34.2055
 30
0.0
 10
-53.0149
 20
34.1053
 30
0.0
 10
-53.0149
 20
34.1053
 30
0.0
 10
-52.9744
 20
34.229
 30
0.0
 10
-52.9095
 20
34.3235
 30
0.0
 10
-52.8192
 20
34.3884
 30
0.0
 10
-52.8192
 20
34.3884
 30
0.0
 10
-52.7294
 20
34.4529
 30
0.0
 10
-52.6217
 20
34.4853
 30
0.0
 10
-52.497
 20
34.4853
 30
0.0
 10
-52.497
 20
34.4853
 30
0.0
 10
-52.3239
 20
34.4853
 30
0.0
 10
-52.179
 20
34.4242
 30
0.0
 10
-52.0615
 20
34.3024
 30
0.0
 10
-52.0615
 20
34.3024
 30
0.0
 10
-51.9439
 20
34.1801
 30
0.0
 10
-51.8851
 20
34.0192
 30
0.0
 10
-51.8851
 20
33.8198
 30
0.0
 10
-51.8851
 20
33.8198
 30
0.0
 10
-51.8851
 20
33.6203
 30
0.0
 10
-51.9439
 20
33.4599
 30
0.0
 10
-52.0619
 20
33.3376
 30
0.0
 10
-52.0619
 20
33.3376
 30
0.0
 10
-52.18
 20
33.2153
 30
0.0
 10
-52.3272
 20
33.1542
 30
0.0
 10
-52.5036
 20
33.1542
 30
0.0
 10
-52.5036
 20
33.1542
 30
0.0
 10
-52.6348
 20
33.1542
 30
0.0
 10
-52.7449
 20
33.1876
 30
0.0
 10
-52.8338
 20
33.2544
 30
0.0
 10
-52.8338
 20
33.2544
 30
0.0
 10
-52.9222
 20
33.3207
 30
0.0
 10
-52.9829
 20
33.4157
 30
0.0
 10
-53.0149
 20
33.539
 30
0.0
  0
SPLINE
  5
DC
330
1F
100
AcDbEntity
  8
ILUSTRACE
 62
   250
100
AcDbSpline
210
0.0
220
0.0
230
1.0
 70
    11
 71
     3
 72
    36
 73
    32
 74
     0
 42
0.0000000001
 43
0.0000000001
 40
0.0
 40
0.0
 40
0.0
 40
0.0
 40
0.1111111111111111
 40
0.1111111111111111
 40
0.1111111111111111
 40
0.1111111111111111
 40
0.2222222222222222
 40
0.2222222222222222
 40
0.2222222222222222
 40
0.2222222222222222
 40
0.3333333333333333
 40
0.3333333333333333
 40
0.3333333333333333
 40
0.3333333333333333
 40
0.4444444444444444
 40
0.4444444444444444
 40
0.4444444444444444
 40
0.4444444444444444
 40
0.5555555555555556
 40
0.5555555555555556
 40
0.5555555555555556
 40
0.5555555555555556
 40
0.6666666666666666
 40
0.6666666666666666
 40
0.6666666666666666
 40
0.6666666666666666
 40
0.7777777777777778
 40
0.7777777777777778
 40
0.7777777777777778
 40
0.7777777777777778
 40
1.0
 40
1.0
 40
1.0
 40
1.0
 10
-53.4354
 20
33.4891
 30
0.0
 10
-53.3399
 20
33.4891
 30
0.0
 10
-53.2618
 20
33.5201
 30
0.0
 10
-53.2011
 20
33.5813
 30
0.0
 10
-53.2011
 20
33.5813
 30
0.0
 10
-53.1405
 20
33.6429
 30
0.0
 10
-53.1099
 20
33.7229
 30
0.0
 10
-53.1099
 20
33.8212
 30
0.0
 10
-53.1099
 20
33.8212
 30
0.0
 10
-53.1099
 20
33.9167
 30
0.0
 10
-53.14
 20
33.9952
 30
0.0
 10
-53.2002
 20
34.0564
 30
0.0
 10
-53.2002
 20
34.0564
 30
0.0
 10
-53.2604
 20
34.1175
 30
0.0
 10
-53.3343
 20
34.1476
 30
0.0
 10
-53.4213
 20
34.1476
 30
0.0
 10
-53.4213
 20
34.1476
 30
0.0
 10
-53.5125
 20
34.1476
 30
0.0
 10
-53.5887
 20
34.1166
 30
0.0
 10
-53.6508
 20
34.0535
 30
0.0
 10
-53.6508
 20
34.0535
 30
0.0
 10
-53.7129
 20
33.9905
 30
0.0
 10
-53.744
 20
33.9124
 30
0.0
 10
-53.744
 20
33.8184
 30
0.0
 10
-53.744
 20
33.8184
 30
0.0
 10
-53.744
 20
33.7238
 30
0.0
 10
-53.7134
 20
33.6453
 30
0.0
 10
-53.6532
 20
33.5827
 30
0.0
 10
-53.6532
 20
33.5827
 30
0.0
 10
-53.5925
 20
33.5201
 30
0.0
 10
-53.5196
 20
33.4891
 30
0.0
 10
-53.4354
 20
33.4891
 30
0.0
  0
SPLINE
  5
DD
330
1F
100
AcDbEntity
  8
ILUSTRACE
 62
   250
100
AcDbSpline
210
0.0
220
0.0
230
1.0
 70
    11
 71
     3
 72
    40
 73
    36
 74
     0
 42
0.0000000001
 43
0.0000000001
 40
0.0
 40
0.0
 40
0.0
 40
0.0
 40
0.1
 40
0.1
 40
0.1
 40
0.1
 40
0.2
 40
0.2
 40
0.2
 40
0.2
 40
0.3
 40
0.3
 40
0.3
 40
0.3
 40
0.4
 40
0.4
 40
0.4
 40
0.4
 40
0.5
 40
0.5
 40
0.5
 40
0.5
 40
0.6
 40
0.6
 40
0.6
 40
0.6
 40
0.7
 40
0.7
 40
0.7
 40
0.7
 40
0.8
 40
0.8
 40
0.8
 40
0.8
 40
1.0
 40
1.0
 40
1.0
 40
1.0
 10
-52.5022
 20
33.4091
 30
0.0
 10
-52.4316
 20
33.4091
 30
0.0
 10
-52.363
 20
33.4261
 30
0.0
 10
-52.2971
 20
33.4595
 30
0.0
 10
-52.2971
 20
33.4595
 30
0.0
 10
-52.2308
 20
33.4929
 30
0.0
 10
-52.1795
 20
33.5427
 30
0.0
 10
-52.1433
 20
33.609
 30
0.0
 10
-52.1433
 20
33.609
 30
0.0
 10
-52.1071
 20
33.6754
 30
0.0
 10
-52.0887
 20
33.7464
 30
0.0
 10
-52.0887
 20
33.8226
 30
0.0
 10
-52.0887
 20
33.8226
 30
0.0
 10
-52.0887
 20
33.9411
 30
0.0
 10
-52.1268
 20
34.039
 30
0.0
 10
-52.2035
 20
34.1161
 30
0.0
 10
-52.2035
 20
34.1161
 30
0.0
 10
-52.2797
 20
34.1932
 30
0.0
 10
-52.3766
 20
34.2318
 30
0.0
 10
-52.4942
 20
34.2318
 30
0.0
 10
-52.4942
 20
34.2318
 30
0.0
 10
-52.6137
 20
34.2318
 30
0.0
 10
-52.7124
 20
34.1923
 30
0.0
 10
-52.7905
 20
34.1128
 30
0.0
 10
-52.7905
 20
34.1128
 30
0.0
 10
-52.8686
 20
34.0333
 30
0.0
 10
-52.9076
 20
33.9336
 30
0.0
 10
-52.9076
 20
33.8141
 30
0.0
 10
-52.9076
 20
33.8141
 30
0.0
 10
-52.9076
 20
33.6975
 30
0.0
 10
-52.8691
 20
33.601
 30
0.0
 10
-52.7919
 20
33.5244
 30
0.0
 10
-52.7919
 20
33.5244
 30
0.0
 10
-52.7143
 20
33.4477
 30
0.0
 10
-52.6179
 20
33.4091
 30
0.0
 10
-52.5022
 20
33.4091
 30
0.0
  0
SPLINE
  5
DE
330
1F
100
AcDbEntity
  8
ILUSTRACE
 62
   250
100
AcDbSpline
210
0.0
220
0.0
230
1.0
 70
    24
 71
     3
 72
     8
 73
     4
 74
     0
 42
0.0000000001
 43
0.0000000001
 40
0.0
 40
0.0
 40
0.0
 40
0.0
 40
1.0
 40
1.0
 40
1.0
 40
1.0
 10
-39.3693
 20
32.5457
 30
0.0
 10
-39.3693
 20
32.5457
 30
0.0
 10
-51.526
 20
32.5457
 30
0.0
 10
-51.526
 20
32.5457
 30
0.0
  0
SPLINE
  5
DF
330
1F
100
AcDbEntity
  8
ILUSTRACE
 62
   250
100
AcDbSpline
210
0.0
220
0.0
230
1.0
 70
    11
 71
     3
 72
    20
 73
    16
 74
     0
 42
0.0000000001
 43
0.0000000001
 40
0.0
 40
0.0
 40
0.0
 40
0.0
 40
0.2
 40
0.2
 40
0.2
 40
0.2
 40
0.4
 40
0.4
 40
0.4
 40
0.4
 40
0.6
 40
0.6
 40
0.6
 40
0.6
 40
1.0
 40
1.0
 40
1.0
 40
1.0
 10
-51.5449
 20
37.8366
 30
0.0
 10
-51.5449
 20
37.8366
 30
0.0
 10
-51.1215
 20
34.8366
 30
0.0
 10
-51.1215
 20
34.8366
 30
0.0
 10
-51.1215
 20
34.8366
 30
0.0
 10
-51.1215
 20
34.8366
 30
0.0
 10
-51.0275
 20
34.8366
 30
0.0
 10
-51.0275
 20
34.8366
 30
0.0
 10
-51.0275
 20
34.8366
 30
0.0
 10
-51.0275
 20
34.8366
 30
0.0
 10
-50.576
 20
37.8366
 30
0.0
 10
-50.576
 20
37.8366
 30
0.0
 10
-50.576
 20
37.8366
 30
0.0
 10
-50.576
 20
37.8366
 30
0.0
 10
-51.5449
 20
37.8366
 30
0.0
 10
-51.5449
 20
37.8366
 30
0.0
  0
SPLINE
  5
E0
330
1F
100
AcDbEntity
  8
ILUSTRACE
  6
NEW_LINE3
 62
   250
100
AcDbSpline
210
0.0
220
0.0
230
1.0
 70
    24
 71
     3
 72
     8
 73
     4
 74
     0
 42
0.0000000001
 43
0.0000000001
 40
0.0
 40
0.0
 40
0.0
 40
0.0
 40
1.0
 40
1.0
 40
1.0
 40
1.0
 10
46.1818
 20
-16.4203
 30
0.0
 10
46.1818
 20
-16.4203
 30
0.0
 10
53.948
 20
-16.4203
 30
0.0
 10
53.948
 20
-16.4203
 30
0.0
  0
SPLINE
  5
E2
330
1F
100
AcDbEntity
  8
ILUSTRACE
  6
NEW_LINE4
 62
   250
100
AcDbSpline
210
0.0
220
0.0
230
1.0
 70
    24
 71
     3
 72
     8
 73
     4
 74
     0
 42
0.0000000001
 43
0.0000000001
 40
0.0
 40
0.0
 40
0.0
 40
0.0
 40
1.0
 40
1.0
 40
1.0
 40
1.0
 10
-33.5759
 20
-29.7277
 30
0.0
 10
-33.5759
 20
-29.7277
 30
0.0
 10
-33.5759
 20
-40.7989
 30
0.0
 10
-33.5759
 20
-40.7989
 30
0.0
  0
SPLINE
  5
E4
330
1F
100
AcDbEntity
  8
ILUSTRACE
  6
NEW_LINE5
 62
   250
100
AcDbSpline
210
0.0
220
0.0
230
1.0
 70
    11
 71
     3
 72
    20
 73
    16
 74
     0
 42
0.0000000001
 43
0.0000000001
 40
0.0
 40
0.0
 40
0.0
 40
0.0
 40
0.2
 40
0.2
 40
0.2
 40
0.2
 40
0.4
 40
0.4
 40
0.4
 40
0.4
 40
0.6
 40
0.6
 40
0.6
 40
0.6
 40
1.0
 40
1.0
 40
1.0
 40
1.0
 10
-38.854
 20
34.7801
 30
0.0
 10
-38.854
 20
34.7801
 30
0.0
 10
-28.3468
 20
34.7801
 30
0.0
 10
-28.3468
 20
34.7801
 30
0.0
 10
-28.3468
 20
34.7801
 30
0.0
 10
-28.3468
 20
34.7801
 30
0.0
 10
-28.3468
 20
32.5211
 30
0.0
 10
-28.3468
 20
32.5211
 30
0.0
 10
-28.3468
 20
32.5211
 30
0.0
 10
-28.3468
 20
32.5211
 30
0.0
 10
-38.854
 20
32.5211
 30
0.0
 10
-38.854
 20
32.5211
 30
0.0
 10
-38.854
 20
32.5211
 30
0.0
 10
-38.854
 20
32.5211
 30
0.0
 10
-38.854
 20
34.7801
 30
0.0
 10
-38.854
 20
34.7801
 30
0.0
  0
SPLINE
  5
E6
330
1F
100
AcDbEntity
  8
ILUSTRACE
 62
   250
100
AcDbSpline
210
0.0
220
0.0
230
1.0
 70
    24
 71
     3
 72
     8
 73
     4
 74
     0
 42
0.0000000001
 43
0.0000000001
 40
0.0
 40
0.0
 40
0.0
 40
0.0
 40
1.0
 40
1.0
 40
1.0
 40
1.0
 10
-46.3183
 20
-16.3978
 30
0.0
 10
-46.3183
 20
-16.3978
 30
0.0
 10
-51.8308
 20
-16.3978
 30
0.0
 10
-51.8308
 20
-16.3978
 30
0.0
  0
ENDSEC
  0
SECTION
  2
OBJECTS
  0
DICTIONARY
  5
C
330
0
100
AcDbDictionary
  3
ACAD_GROUP
350
D
  3
ACAD_LAYOUT
350
1A
  3
ACAD_MATERIAL
350
3B
  3
ACAD_MLEADERSTYLE
350
109
  3
ACAD_MLINESTYLE
350
17
  3
ACAD_PLOTSETTINGS
350
19
  3
ACAD_VISUALSTYLE
350
2A
  3
ACDBHEADERROUNDTRIPXREC
350
E7
  3
ACDBVARIABLEDICTIONARY
350
107
  0
DICTIONARY
  5
D
102
{ACAD_REACTORS
330
C
102
}
330
C
100
AcDbDictionary
  0
DICTIONARY
  5
1A
102
{ACAD_REACTORS
330
C
102
}
330
C
100
AcDbDictionary
  0
DICTIONARY
  5
3B
102
{ACAD_REACTORS
330
C
102
}
330
C
100
AcDbDictionary
  3
BYBLOCK
350
3D
  3
BYLAYER
350
3C
  3
GLOBAL
350
3E
  0
DICTIONARY
  5
109
102
{ACAD_REACTORS
330
C
102
}
330
C
100
AcDbDictionary
  0
DICTIONARY
  5
17
102
{ACAD_REACTORS
330
C
102
}
330
C
100
AcDbDictionary
  3
STANDARD
350
18
  0
DICTIONARY
  5
19
102
{ACAD_REACTORS
330
C
102
}
330
C
100
AcDbDictionary
  0
DICTIONARY
  5
2A
102
{ACAD_REACTORS
330
C
102
}
330
C
100
AcDbDictionary
  3
2DWIREFRAME
350
2F
  3
3D_HIDDEN
350
31
  3
3DWIREFRAME
350
30
  3
BASIC
350
32
  3
BRIGHTEN
350
36
  3
COLORCHANGE
350
3A
  3
CONCEPTUAL
350
34
  3
DIM
350
35
  3
FACEPATTERN
350
39
  3
FLAT
350
2B
  3
FLATWITHEDGES
350
2C
  3
GOURAUD
350
2D
  3
GOURAUDWITHEDGES
350
2E
  3
LINEPATTERN
350
38
  3
REALISTIC
350
33
  3
THICKEN
350
37
  0
DICTIONARY
  5
E7
102
{ACAD_REACTORS
330
C
102
}
330
C
100
AcDbDictionary
  3
CEPSNTYPE
350
F0
  3
DIMSTYLEDATA
350
106
  3
FINGERPRINTGUID
350
F1
  3
HYPERLINKBASE
350
EA
  3
INSUNITS
350
EF
  3
LAYOUTDICT
350
EC
  3
LWETCUNION
350
EE
  3
PLOTSETDICT
350
ED
  3
PSVPSCALE
350
F3
  3
PUCSBASE
350
F6
  3
PUCSORGBACK
350
FC
  3
PUCSORGBOTTOM
350
F8
  3
PUCSORGFRONT
350
FB
  3
PUCSORGLEFT
350
F9
  3
PUCSORGRIGHT
350
FA
  3
PUCSORGTOP
350
F7
  3
PUCSORTHOREF
350
F4
  3
PUCSORTHOVIEW
350
F5
  3
STYLESHEET
350
EB
  3
TSTACKALIGN
350
E8
  3
TSTACKSIZE
350
E9
  3
UCSBASE
350
FF
  3
UCSORGBACK
350
105
  3
UCSORGBOTTOM
350
101
  3
UCSORGFRONT
350
104
  3
UCSORGLEFT
350
102
  3
UCSORGRIGHT
350
103
  3
UCSORGTOP
350
100
  3
UCSORTHOREF
350
FD
  3
UCSORTHOVIEW
350
FE
  3
VERSIONGUID
350
F2
  0
DICTIONARY
  5
107
102
{ACAD_REACTORS
330
C
102
}
330
C
100
AcDbDictionary
  3
DIMASSOC
350
10A
  3
HIDETEXT
350
10B
  0
MATERIAL
  5
3D
102
{ACAD_REACTORS
330
3B
102
}
102
{ACAD_XDICTIONARY
360
10E
102
}
330
3B
100
AcDbMaterial
  1
ByBlock
  0
MATERIAL
  5
3C
102
{ACAD_REACTORS
330
3B
102
}
102
{ACAD_XDICTIONARY
360
10C
102
}
330
3B
100
AcDbMaterial
  1
ByLayer
  0
MATERIAL
  5
3E
102
{ACAD_REACTORS
330
3B
102
}
102
{ACAD_XDICTIONARY
360
110
102
}
330
3B
100
AcDbMaterial
  1
Global
  0
MLINESTYLE
  5
18
102
{ACAD_REACTORS
330
17
102
}
330
17
100
AcDbMlineStyle
  2
Standard
 70
     0
  3

 62
   256
 51
90.0
 52
90.0
 71
     2
 49
0.5
 62
   256
  6
BYLAYER
 49
-0.5
 62
   256
  6
BYLAYER
  0
ACAD_PROXY_OBJECT
  5
2F
102
{ACAD_REACTORS
330
2A
102
}
330
2A
100
AcDbProxyObject
 90
      499
 91
      501
 93
      436
310
42CC9915DA5C99599C985B595049028333333333333E3BF0000000000000FB0107901411070040501600405405064090741402480A0340
1001
ACAD
1000
AcDbSavedByObjectVersion
1070
     0
  0
ACAD_PROXY_OBJECT
  5
31
102
{ACAD_REACTORS
330
2A
102
}
330
2A
100
AcDbProxyObject
 90
      499
 91
      501
 93
      500
310
424CD108121A5919195B90640502408333333333333E3BF0000000000000FB01079024090700405020000000000001110200405405064090740C02480A0340
1001
ACAD
1000
AcDbSavedByObjectVersion
1070
     0
  0
ACAD_PROXY_OBJECT
  5
30
102
{ACAD_REACTORS
330
2A
102
}
330
2A
100
AcDbProxyObject
 90
      499
 91
      501
 93
      436
310
42CCD915DA5C99599C985B595059028333333333333E3BF0000000000000FB0107901411070040501600405405064090741402480A0340
1001
ACAD
1000
AcDbSavedByObjectVersion
1070
     0
  0
ACAD_PROXY_OBJECT
  5
32
102
{ACAD_REACTORS
330
2A
102
}
330
2A
100
AcDbProxyObject
 90
      499
 91
      501
 93
      388
310
4150985CDA58D07406404333333333333E3BF0000000000000FB0107A41107004050150841D405064090741402480A0350
1001
ACAD
1000
AcDbSavedByObjectVersion
1070
     0
  0
ACAD_PROXY_OBJECT
  5
36
102
{ACAD_REACTORS
330
2A
102
}
330
2A
100
AcDbProxyObject
 90
      499
 91
      501
 93
      428
310
42109C9A59DA1D195B90C409028333333333333E3BF0000000000000FB010790141107004050150841D405064090741402480A029950
1001
ACAD
1000
AcDbSavedByObjectVersion
1070
     0
  0
ACAD_PROXY_OBJECT
  5
3A
102
{ACAD_REACTORS
330
2A
102
}
330
2A
100
AcDbProxyObject
 90
      499
 91
      501
 93
      452
310
42D0DBDB1BDC90DA185B99D95104090240C333333333333E3BF0000000000000FB0108901411070040501508421405064090741402480A0350
1001
ACAD
1000
AcDbSavedByObjectVersion
1070
     0
  0
ACAD_PROXY_OBJECT
  5
34
102
{ACAD_REACTORS
330
2A
102
}
330
2A
100
AcDbProxyObject
 90
      499
 91
      501
 93
      500
310
4290DBDB98D95C1D1D585B10940D028333333333333E3BF0000000000000FB0107902409070040501000000000000111010841D405064090740C02480A0340
1001
ACAD
1000
AcDbSavedByObjectVersion
1070
     0
  0
ACAD_PROXY_OBJECT
  5
35
102
{ACAD_REACTORS
330
2A
102
}
330
2A
100
AcDbProxyObject
 90
      499
 91
      501
 93
      412
310
40D11A5B50B409028333333333333E3BF0000000000000FB010790141107004050150841D405064090741402480A02677FFFFFD0
1001
ACAD
1000
AcDbSavedByObjectVersion
1070
     0
  0
ACAD_PROXY_OBJECT
  5
39
102
{ACAD_REACTORS
330
2A
102
}
330
2A
100
AcDbProxyObject
 90
      499
 91
      501
 93
      444
310
42D19858D95C185D1D195C9B90F409028333333333333E3BF0000000000000FB010790141107004050150841D405064090741402480A0350
1001
ACAD
1000
AcDbSavedByObjectVersion
1070
     0
  0
ACAD_PROXY_OBJECT
  5
2B
102
{ACAD_REACTORS
330
2A
102
}
330
2A
100
AcDbProxyObject
 90
      499
 91
      501
 93
      388
310
41119B185D240901404333333333333E3BF0000000000000F9010740A41107004050150841D405064090741402480A1B50
1001
ACAD
1000
AcDbSavedByObjectVersion
1070
     0
  0
ACAD_PROXY_OBJECT
  5
2C
102
{ACAD_REACTORS
330
2A
102
}
330
2A
100
AcDbProxyObject
 90
      499
 91
      501
 93
      476
310
43519B185D15DA5D1A115919D95CD0140901404333333333333E3BF0000000000000F9010740901411070040501600405405064090741402480A1B50
1001
ACAD
1000
AcDbSavedByObjectVersion
1070
     0
  0
ACAD_PROXY_OBJECT
  5
2D
102
{ACAD_REACTORS
330
2A
102
}
330
2A
100
AcDbProxyObject
 90
      499
 91
      501
 93
      412
310
41D1DBDD5C985D5910240902404333333333333E3BF0000000000000F9010740A411070040501641D405064090741402480A1B50
1001
ACAD
1000
AcDbSavedByObjectVersion
1070
     0
  0
ACAD_PROXY_OBJECT
  5
2E
102
{ACAD_REACTORS
330
2A
102
}
330
2A
100
AcDbProxyObject
 90
      499
 91
      501
 93
      500
310
4411DBDD5C985D5915DA5D1A115919D95CD0340902404333333333333E3BF0000000000000F9010740901411070040501600405405064090741402480A1B50
1001
ACAD
1000
AcDbSavedByObjectVersion
1070
     0
  0
ACAD_PROXY_OBJECT
  5
38
102
{ACAD_REACTORS
330
2A
102
}
330
2A
100
AcDbProxyObject
 90
      499
 91
      501
 93
      444
310
42D31A5B995C185D1D195C9B90E409028333333333333E3BF0000000000000FB010790141107004050750841D405064090741402483A0350
1001
ACAD
1000
AcDbSavedByObjectVersion
1070
     0
  0
ACAD_PROXY_OBJECT
  5
33
102
{ACAD_REACTORS
330
2A
102
}
330
2A
100
AcDbProxyObject
 90
      499
 91
      501
 93
      420
310
425499585B1A5CDD1A58D08409028333333333333E3BF0000000000000FB01079019070040501508421405064090741402480A1B40
1001
ACAD
1000
AcDbSavedByObjectVersion
1070
     0
  0
ACAD_PROXY_OBJECT
  5
37
102
{ACAD_REACTORS
330
2A
102
}
330
2A
100
AcDbProxyObject
 90
      499
 91
      501
 93
      412
310
41D51A1A58DAD95B90D409028333333333333E3BF0000000000000FB010790141107004050150C41D405064090741402480A0350
1001
ACAD
1000
AcDbSavedByObjectVersion
1070
     0
  0
XRECORD
  5
F0
102
{ACAD_REACTORS
330
E7
102
}
330
E7
100
AcDbXrecord
 90
        0
  0
XRECORD
  5
106
102
{ACAD_REACTORS
330
E7
102
}
330
E7
100
AcDbXrecord
1000
DSTYLE
1002
{
1070
   340
340
11
1002
}
  0
XRECORD
  5
F1
102
{ACAD_REACTORS
330
E7
102
}
330
E7
100
AcDbXrecord
  1
{860C8214-B777-4C89-B602-0588F1EB74C6}
  0
XRECORD
  5
EA
102
{ACAD_REACTORS
330
E7
102
}
330
E7
100
AcDbXrecord
  1

  0
XRECORD
  5
EF
102
{ACAD_REACTORS
330
E7
102
}
330
E7
100
AcDbXrecord
 90
        4
  0
XRECORD
  5
EC
102
{ACAD_REACTORS
330
E7
102
}
330
E7
100
AcDbXrecord
340
1A
  0
XRECORD
  5
EE
102
{ACAD_REACTORS
330
E7
102
}
330
E7
100
AcDbXrecord
 90
    10781
  0
XRECORD
  5
ED
102
{ACAD_REACTORS
330
E7
102
}
330
E7
100
AcDbXrecord
340
19
  0
XRECORD
  5
F3
102
{ACAD_REACTORS
330
E7
102
}
330
E7
100
AcDbXrecord
 40
0.0
  0
XRECORD
  5
F6
102
{ACAD_REACTORS
330
E7
102
}
330
E7
100
AcDbXrecord
340
0
  0
XRECORD
  5
FC
102
{ACAD_REACTORS
330
E7
102
}
330
E7
100
AcDbXrecord
 10
0.0
 20
0.0
 30
0.0
  0
XRECORD
  5
F8
102
{ACAD_REACTORS
330
E7
102
}
330
E7
100
AcDbXrecord
 10
0.0
 20
0.0
 30
0.0
  0
XRECORD
  5
FB
102
{ACAD_REACTORS
330
E7
102
}
330
E7
100
AcDbXrecord
 10
0.0
 20
0.0
 30
0.0
  0
XRECORD
  5
F9
102
{ACAD_REACTORS
330
E7
102
}
330
E7
100
AcDbXrecord
 10
0.0
 20
0.0
 30
0.0
  0
XRECORD
  5
FA
102
{ACAD_REACTORS
330
E7
102
}
330
E7
100
AcDbXrecord
 10
0.0
 20
0.0
 30
0.0
  0
XRECORD
  5
F7
102
{ACAD_REACTORS
330
E7
102
}
330
E7
100
AcDbXrecord
 10
0.0
 20
0.0
 30
0.0
  0
XRECORD
  5
F4
102
{ACAD_REACTORS
330
E7
102
}
330
E7
100
AcDbXrecord
340
0
  0
XRECORD
  5
F5
102
{ACAD_REACTORS
330
E7
102
}
330
E7
100
AcDbXrecord
 70
     0
  0
XRECORD
  5
EB
102
{ACAD_REACTORS
330
E7
102
}
330
E7
100
AcDbXrecord
  1

  0
XRECORD
  5
E8
102
{ACAD_REACTORS
330
E7
102
}
330
E7
100
AcDbXrecord
 90
        1
  0
XRECORD
  5
E9
102
{ACAD_REACTORS
330
E7
102
}
330
E7
100
AcDbXrecord
 90
       70
  0
XRECORD
  5
FF
102
{ACAD_REACTORS
330
E7
102
}
330
E7
100
AcDbXrecord
340
0
  0
XRECORD
  5
105
102
{ACAD_REACTORS
330
E7
102
}
330
E7
100
AcDbXrecord
 10
0.0
 20
0.0
 30
0.0
  0
XRECORD
  5
101
102
{ACAD_REACTORS
330
E7
102
}
330
E7
100
AcDbXrecord
 10
0.0
 20
0.0
 30
0.0
  0
XRECORD
  5
104
102
{ACAD_REACTORS
330
E7
102
}
330
E7
100
AcDbXrecord
 10
0.0
 20
0.0
 30
0.0
  0
XRECORD
  5
102
102
{ACAD_REACTORS
330
E7
102
}
330
E7
100
AcDbXrecord
 10
0.0
 20
0.0
 30
0.0
  0
XRECORD
  5
103
102
{ACAD_REACTORS
330
E7
102
}
330
E7
100
AcDbXrecord
 10
0.0
 20
0.0
 30
0.0
  0
XRECORD
  5
100
102
{ACAD_REACTORS
330
E7
102
}
330
E7
100
AcDbXrecord
 10
0.0
 20
0.0
 30
0.0
  0
XRECORD
  5
FD
102
{ACAD_REACTORS
330
E7
102
}
330
E7
100
AcDbXrecord
340
0
  0
XRECORD
  5
FE
102
{ACAD_REACTORS
330
E7
102
}
330
E7
100
AcDbXrecord
 70
     0
  0
XRECORD
  5
F2
102
{ACAD_REACTORS
330
E7
102
}
330
E7
100
AcDbXrecord
  1
{FAEB1C32-E019-11D5-929B-00C0DF256EC4}
  0
DICTIONARYVAR
  5
10A
102
{ACAD_REACTORS
330
107
102
}
330
107
100
DictionaryVariables
280
     0
  1
2
  0
DICTIONARYVAR
  5
10B
102
{ACAD_REACTORS
330
107
102
}
330
107
100
DictionaryVariables
280
     0
  1
1
  0
DICTIONARY
  5
10E
330
3D
100
AcDbDictionary
280
     1
  3
ACAD_XREC_ROUNDTRIP
360
10F
  0
DICTIONARY
  5
10C
330
3C
100
AcDbDictionary
280
     1
  3
ACAD_XREC_ROUNDTRIP
360
10D
  0
DICTIONARY
  5
110
330
3E
100
AcDbDictionary
280
     1
  3
ACAD_XREC_ROUNDTRIP
360
111
  0
XRECORD
  5
10F
102
{ACAD_REACTORS
330
10E
102
}
330
10E
100
AcDbXrecord
102
MATERIAL
148
0.0
149
0.0
149
0.0
 93
        0
 94
      127
282
     0
 72
     1
 77
     1
171
     1
175
     1
179
     1
273
     0
  0
XRECORD
  5
10D
102
{ACAD_REACTORS
330
10C
102
}
330
10C
100
AcDbXrecord
102
MATERIAL
148
0.0
149
0.0
149
0.0
 93
        0
 94
      127
282
     0
 72
     1
 77
     1
171
     1
175
     1
179
     1
273
     0
  0
XRECORD
  5
111
102
{ACAD_REACTORS
330
110
102
}
330
110
100
AcDbXrecord
102
MATERIAL
148
0.0
149
0.0
149
0.0
 93
        0
 94
      127
282
     0
 72
     1
 77
     1
171
     1
175
     1
179
     1
273
     0
  0
ENDSEC
  0
EOF
