  0
SECTION
  2
HEADER
  9
$ACADVER
  1
AC1014
  9
$ACADMAINTVER
 70
     9
  9
$DWGCODEPAGE
  3
ANSI_1250
  9
$INSBASE
 10
0.0
 20
0.0
 30
0.0
  9
$EXTMIN
 10
-38.4467
 20
-33.6061
 30
0.0
  9
$EXTMAX
 10
38.4468
 20
33.7751
 30
0.0
  9
$LIMMIN
 10
0.0
 20
0.0
  9
$LIMMAX
 10
12.0
 20
9.0
  9
$ORTHOMODE
 70
     0
  9
$REGENMODE
 70
     1
  9
$FILLMODE
 70
     1
  9
$QTEXTMODE
 70
     0
  9
$MIRRTEXT
 70
     1
  9
$DRAGMODE
 70
     2
  9
$LTSCALE
 40
1.0
  9
$OSMODE
 70
    37
  9
$ATTMODE
 70
     1
  9
$TEXTSIZE
 40
0.2
  9
$TRACEWID
 40
0.05
  9
$TEXTSTYLE
  7
STANDARD
  9
$CLAYER
  8
0
  9
$CELTYPE
  6
BYLAYER
  9
$CECOLOR
 62
   256
  9
$CELTSCALE
 40
1.0
  9
$DELOBJ
 70
     1
  9
$DISPSILH
 70
     0
  9
$DIMSCALE
 40
1.0
  9
$DIMASZ
 40
0.18
  9
$DIMEXO
 40
0.0625
  9
$DIMDLI
 40
0.38
  9
$DIMRND
 40
0.0
  9
$DIMDLE
 40
0.0
  9
$DIMEXE
 40
0.18
  9
$DIMTP
 40
0.0
  9
$DIMTM
 40
0.0
  9
$DIMTXT
 40
0.18
  9
$DIMCEN
 40
0.09
  9
$DIMTSZ
 40
0.0
  9
$DIMTOL
 70
     0
  9
$DIMLIM
 70
     0
  9
$DIMTIH
 70
     1
  9
$DIMTOH
 70
     1
  9
$DIMSE1
 70
     0
  9
$DIMSE2
 70
     0
  9
$DIMTAD
 70
     0
  9
$DIMZIN
 70
     0
  9
$DIMBLK
  1

  9
$DIMASO
 70
     1
  9
$DIMSHO
 70
     1
  9
$DIMPOST
  1

  9
$DIMAPOST
  1

  9
$DIMALT
 70
     0
  9
$DIMALTD
 70
     2
  9
$DIMALTF
 40
25.4
  9
$DIMLFAC
 40
1.0
  9
$DIMTOFL
 70
     0
  9
$DIMTVP
 40
0.0
  9
$DIMTIX
 70
     0
  9
$DIMSOXD
 70
     0
  9
$DIMSAH
 70
     0
  9
$DIMBLK1
  1

  9
$DIMBLK2
  1

  9
$DIMSTYLE
  2
STANDARD
  9
$DIMCLRD
 70
     0
  9
$DIMCLRE
 70
     0
  9
$DIMCLRT
 70
     0
  9
$DIMTFAC
 40
1.0
  9
$DIMGAP
 40
0.09
  9
$DIMJUST
 70
     0
  9
$DIMSD1
 70
     0
  9
$DIMSD2
 70
     0
  9
$DIMTOLJ
 70
     1
  9
$DIMTZIN
 70
     0
  9
$DIMALTZ
 70
     0
  9
$DIMALTTZ
 70
     0
  9
$DIMFIT
 70
     3
  9
$DIMUPT
 70
     0
  9
$DIMUNIT
 70
     2
  9
$DIMDEC
 70
     4
  9
$DIMTDEC
 70
     4
  9
$DIMALTU
 70
     2
  9
$DIMALTTD
 70
     2
  9
$DIMTXSTY
  7
STANDARD
  9
$DIMAUNIT
 70
     0
  9
$LUNITS
 70
     2
  9
$LUPREC
 70
     4
  9
$SKETCHINC
 40
0.1
  9
$FILLETRAD
 40
0.5
  9
$AUNITS
 70
     0
  9
$AUPREC
 70
     0
  9
$MENU
  1
.
  9
$ELEVATION
 40
0.0
  9
$PELEVATION
 40
0.0
  9
$THICKNESS
 40
0.0
  9
$LIMCHECK
 70
     0
  9
$CHAMFERA
 40
0.5
  9
$CHAMFERB
 40
0.5
  9
$CHAMFERC
 40
1.0
  9
$CHAMFERD
 40
0.0
  9
$SKPOLY
 70
     0
  9
$TDCREATE
 40
2456247.404364086
  9
$TDUPDATE
 40
2456247.404364097
  9
$TDINDWG
 40
0.0000000116
  9
$TDUSRTIMER
 40
0.0000000116
  9
$USRTIMER
 70
     1
  9
$ANGBASE
 50
0.0
  9
$ANGDIR
 70
     0
  9
$PDMODE
 70
     0
  9
$PDSIZE
 40
0.0
  9
$PLINEWID
 40
0.0
  9
$COORDS
 70
     1
  9
$SPLFRAME
 70
     0
  9
$SPLINETYPE
 70
     6
  9
$SPLINESEGS
 70
     8
  9
$ATTDIA
 70
     0
  9
$ATTREQ
 70
     1
  9
$HANDLING
 70
     1
  9
$HANDSEED
  5
124
  9
$SURFTAB1
 70
     6
  9
$SURFTAB2
 70
     6
  9
$SURFTYPE
 70
     6
  9
$SURFU
 70
     6
  9
$SURFV
 70
     6
  9
$UCSNAME
  2

  9
$UCSORG
 10
0.0
 20
0.0
 30
0.0
  9
$UCSXDIR
 10
1.0
 20
0.0
 30
0.0
  9
$UCSYDIR
 10
0.0
 20
1.0
 30
0.0
  9
$PUCSNAME
  2

  9
$PUCSORG
 10
0.0
 20
0.0
 30
0.0
  9
$PUCSXDIR
 10
1.0
 20
0.0
 30
0.0
  9
$PUCSYDIR
 10
0.0
 20
1.0
 30
0.0
  9
$USERI1
 70
     0
  9
$USERI2
 70
     0
  9
$USERI3
 70
     0
  9
$USERI4
 70
     0
  9
$USERI5
 70
     0
  9
$USERR1
 40
0.0
  9
$USERR2
 40
0.0
  9
$USERR3
 40
0.0
  9
$USERR4
 40
0.0
  9
$USERR5
 40
0.0
  9
$WORLDVIEW
 70
     1
  9
$SHADEDGE
 70
     3
  9
$SHADEDIF
 70
    70
  9
$TILEMODE
 70
     1
  9
$MAXACTVP
 70
    64
  9
$PINSBASE
 10
0.0
 20
0.0
 30
0.0
  9
$PLIMCHECK
 70
     0
  9
$PEXTMIN
 10
1.000000000000000E+20
 20
1.000000000000000E+20
 30
1.000000000000000E+20
  9
$PEXTMAX
 10
-1.000000000000000E+20
 20
-1.000000000000000E+20
 30
-1.000000000000000E+20
  9
$PLIMMIN
 10
0.0
 20
0.0
  9
$PLIMMAX
 10
12.0
 20
9.0
  9
$UNITMODE
 70
     0
  9
$VISRETAIN
 70
     1
  9
$PLINEGEN
 70
     0
  9
$PSLTSCALE
 70
     1
  9
$TREEDEPTH
 70
  3020
  9
$PICKSTYLE
 70
     1
  9
$CMLSTYLE
  2
STANDARD
  9
$CMLJUST
 70
     0
  9
$CMLSCALE
 40
1.0
  9
$PROXYGRAPHICS
 70
     1
  9
$MEASUREMENT
 70
     0
  0
ENDSEC
  0
SECTION
  2
CLASSES
  0
CLASS
  1
ACDBDICTIONARYWDFLT
  2
AcDbDictionaryWithDefault
  3
ObjectDBX Classes
 90
        0
280
     0
281
     0
  0
CLASS
  1
VISUALSTYLE
  2
AcDbVisualStyle
  3
ObjectDBX Classes
 90
     4095
280
     0
281
     0
  0
CLASS
  1
MATERIAL
  2
AcDbMaterial
  3
ObjectDBX Classes
 90
     1153
280
     0
281
     0
  0
CLASS
  1
DICTIONARYVAR
  2
AcDbDictionaryVar
  3
ObjectDBX Classes
 90
        0
280
     0
281
     0
  0
CLASS
  1
XRECORD
  2
AcDbXrecord
  3
AutoCAD 2000
 90
        0
280
     0
281
     0
  0
CLASS
  1
LWPOLYLINE
  2
AcDbPolyline
  3
AutoCAD 2000
 90
        0
280
     0
281
     1
  0
CLASS
  1
HATCH
  2
AcDbHatch
  3
AutoCAD 2000
 90
        0
280
     0
281
     1
  0
CLASS
  1
ACDBPLACEHOLDER
  2
AcDbPlaceHolder
  3
ObjectDBX Classes
 90
        0
280
     0
281
     0
  0
CLASS
  1
LAYOUT
  2
AcDbLayout
  3
ObjectDBX Classes
 90
        0
280
     0
281
     0
  0
ENDSEC
  0
SECTION
  2
TABLES
  0
TABLE
  2
VPORT
  5
8
330
0
100
AcDbSymbolTable
 70
     1
  0
VPORT
  5
29
330
8
100
AcDbSymbolTableRecord
100
AcDbViewportTableRecord
  2
*ACTIVE
 70
     0
 10
0.0
 20
0.0
 11
1.0
 21
1.0
 12
10.42990654205607
 22
4.5
 13
0.0
 23
0.0
 14
0.5
 24
0.5
 15
0.5
 25
0.5
 16
0.0
 26
0.0
 36
1.0
 17
0.0
 27
0.0
 37
0.0
 40
9.0
 41
1.972972972850329
 42
50.0
 43
0.0
 44
0.0
 50
0.0
 51
0.0
 71
     0
 72
   100
 73
     1
 74
     3
 75
     0
 76
     0
 77
     0
 78
     0
  0
ENDTAB
  0
TABLE
  2
LTYPE
  5
5
330
0
100
AcDbSymbolTable
 70
     4
  0
LTYPE
  5
14
330
5
100
AcDbSymbolTableRecord
100
AcDbLinetypeTableRecord
  2
BYBLOCK
 70
     0
  3

 72
    65
 73
     0
 40
0.0
  0
LTYPE
  5
15
330
5
100
AcDbSymbolTableRecord
100
AcDbLinetypeTableRecord
  2
BYLAYER
 70
     0
  3

 72
    65
 73
     0
 40
0.0
  0
LTYPE
  5
16
330
5
100
AcDbSymbolTableRecord
100
AcDbLinetypeTableRecord
  2
CONTINUOUS
 70
     0
  3
Solid line
 72
    65
 73
     0
 40
0.0
  0
LTYPE
  5
49
330
5
100
AcDbSymbolTableRecord
100
AcDbLinetypeTableRecord
  2
NEW_LINE1
 70
     0
  3

 72
    65
 73
     4
 40
1.2
 49
0.5
 74
     4
 75
     0
340
0
 46
1.0
 50
0.0
 44
0.0
 45
0.0
 49
-0.3
 74
     4
 75
     0
340
0
 46
1.0
 50
0.0
 44
0.0
 45
0.0
 49
0.1
 74
     4
 75
     0
340
0
 46
1.0
 50
0.0
 44
0.0
 45
0.0
 49
-0.3
 74
     4
 75
     0
340
0
 46
1.0
 50
0.0
 44
0.0
 45
0.0
  0
LTYPE
  5
E2
330
5
100
AcDbSymbolTableRecord
100
AcDbLinetypeTableRecord
  2
NEW_LINE2
 70
     0
  3

 72
    65
 73
     4
 40
1.2
 49
0.5
 74
     4
 75
     0
340
0
 46
1.0
 50
0.0
 44
0.0
 45
0.0
 49
-0.3
 74
     4
 75
     0
340
0
 46
1.0
 50
0.0
 44
0.0
 45
0.0
 49
0.1
 74
     4
 75
     0
340
0
 46
1.0
 50
0.0
 44
0.0
 45
0.0
 49
-0.3
 74
     4
 75
     0
340
0
 46
1.0
 50
0.0
 44
0.0
 45
0.0
  0
LTYPE
  5
ED
330
5
100
AcDbSymbolTableRecord
100
AcDbLinetypeTableRecord
  2
NEW_LINE3
 70
     0
  3

 72
    65
 73
     4
 40
1.2
 49
0.5
 74
     4
 75
     0
340
0
 46
1.0
 50
0.0
 44
0.0
 45
0.0
 49
-0.3
 74
     4
 75
     0
340
0
 46
1.0
 50
0.0
 44
0.0
 45
0.0
 49
0.1
 74
     4
 75
     0
340
0
 46
1.0
 50
0.0
 44
0.0
 45
0.0
 49
-0.3
 74
     4
 75
     0
340
0
 46
1.0
 50
0.0
 44
0.0
 45
0.0
  0
ENDTAB
  0
TABLE
  2
LAYER
  5
2
330
0
100
AcDbSymbolTable
 70
     2
  0
LAYER
  5
10
330
2
100
AcDbSymbolTableRecord
100
AcDbLayerTableRecord
  2
0
 70
     0
 62
     7
  6
CONTINUOUS
  0
LAYER
  5
40
330
2
100
AcDbSymbolTableRecord
100
AcDbLayerTableRecord
  2
VRSTVA_1
 70
     0
 62
     7
  6
CONTINUOUS
  0
ENDTAB
  0
TABLE
  2
STYLE
  5
3
330
0
100
AcDbSymbolTable
 70
     1
  0
STYLE
  5
11
330
3
100
AcDbSymbolTableRecord
100
AcDbTextStyleTableRecord
  2
STANDARD
 70
     0
 40
0.0
 41
1.0
 50
0.0
 71
     0
 42
0.2
  3
txt
  4

  0
ENDTAB
  0
TABLE
  2
VIEW
  5
6
330
0
100
AcDbSymbolTable
 70
     0
  0
ENDTAB
  0
TABLE
  2
UCS
  5
7
330
0
100
AcDbSymbolTable
 70
     0
  0
ENDTAB
  0
TABLE
  2
APPID
  5
9
330
0
100
AcDbSymbolTable
 70
     2
  0
APPID
  5
12
330
9
100
AcDbSymbolTableRecord
100
AcDbRegAppTableRecord
  2
ACAD
 70
     0
  0
APPID
  5
3F
330
9
100
AcDbSymbolTableRecord
100
AcDbRegAppTableRecord
  2
ODA
 70
     0
  0
ENDTAB
  0
TABLE
  2
DIMSTYLE
  5
A
330
0
100
AcDbSymbolTable
 70
     1
  0
DIMSTYLE
105
27
330
A
100
AcDbSymbolTableRecord
100
AcDbDimStyleTableRecord
  2
STANDARD
 70
     0
  3

  4

  5

  6

  7

 40
1.0
 41
0.18
 42
0.0625
 43
0.38
 44
0.18
 45
0.0
 46
0.0
 47
0.0
 48
0.0
140
0.18
141
0.09
142
0.0
143
25.4
144
1.0
145
0.0
146
1.0
147
0.09
 71
     0
 72
     0
 73
     1
 74
     1
 75
     0
 76
     0
 77
     0
 78
     0
170
     0
171
     2
172
     0
173
     0
174
     0
175
     0
176
     0
177
     0
178
     0
270
     2
271
     4
272
     4
273
     2
274
     2
340
11
275
     0
280
     0
281
     0
282
     0
283
     1
284
     0
285
     0
286
     0
287
     3
288
     0
  0
ENDTAB
  0
TABLE
  2
BLOCK_RECORD
  5
1
330
0
100
AcDbSymbolTable
 70
     1
  0
BLOCK_RECORD
  5
1F
330
1
100
AcDbSymbolTableRecord
100
AcDbBlockTableRecord
  2
*MODEL_SPACE
  0
BLOCK_RECORD
  5
1B
330
1
100
AcDbSymbolTableRecord
100
AcDbBlockTableRecord
  2
*PAPER_SPACE
  0
ENDTAB
  0
ENDSEC
  0
SECTION
  2
BLOCKS
  0
BLOCK
  5
20
330
1F
100
AcDbEntity
  8
0
100
AcDbBlockBegin
  2
*MODEL_SPACE
 70
     0
 10
0.0
 20
0.0
 30
0.0
  3
*MODEL_SPACE
  1

  0
ENDBLK
  5
21
330
1F
100
AcDbEntity
  8
0
100
AcDbBlockEnd
  0
BLOCK
  5
1C
330
1B
100
AcDbEntity
 67
     1
  8
0
100
AcDbBlockBegin
  2
*PAPER_SPACE
 70
     0
 10
0.0
 20
0.0
 30
0.0
  3
*PAPER_SPACE
  1

  0
ENDBLK
  5
1D
330
1B
100
AcDbEntity
 67
     1
  8
0
100
AcDbBlockEnd
  0
ENDSEC
  0
SECTION
  2
ENTITIES
  0
SPLINE
  5
41
330
1F
100
AcDbEntity
  8
VRSTVA_1
 62
   250
100
AcDbSpline
210
0.0
220
0.0
230
1.0
 70
    24
 71
     3
 72
     8
 73
     4
 74
     0
 42
0.0000000001
 43
0.0000000001
 40
0.0
 40
0.0
 40
0.0
 40
0.0
 40
1.0
 40
1.0
 40
1.0
 40
1.0
 10
36.2004
 20
-0.6563
 30
0.0
 10
36.2004
 20
-0.6563
 30
0.0
 10
36.2004
 20
16.3101
 30
0.0
 10
36.2004
 20
16.3101
 30
0.0
  0
SPLINE
  5
42
330
1F
100
AcDbEntity
  8
VRSTVA_1
 62
   250
100
AcDbSpline
210
0.0
220
0.0
230
1.0
 70
    24
 71
     3
 72
     8
 73
     4
 74
     0
 42
0.0000000001
 43
0.0000000001
 40
0.0
 40
0.0
 40
0.0
 40
0.0
 40
1.0
 40
1.0
 40
1.0
 40
1.0
 10
35.0213
 20
15.6297
 30
0.0
 10
35.0213
 20
15.6297
 30
0.0
 10
-24.1387
 20
15.6297
 30
0.0
 10
-24.1387
 20
15.6297
 30
0.0
  0
SPLINE
  5
43
330
1F
100
AcDbEntity
  8
VRSTVA_1
 62
   250
100
AcDbSpline
210
0.0
220
0.0
230
1.0
 70
    24
 71
     3
 72
     8
 73
     4
 74
     0
 42
0.0000000001
 43
0.0000000001
 40
0.0
 40
0.0
 40
0.0
 40
0.0
 40
1.0
 40
1.0
 40
1.0
 40
1.0
 10
-29.8386
 20
27.8669
 30
0.0
 10
-29.8386
 20
27.8669
 30
0.0
 10
-29.8386
 20
30.9554
 30
0.0
 10
-29.8386
 20
30.9554
 30
0.0
  0
SPLINE
  5
44
330
1F
100
AcDbEntity
  8
VRSTVA_1
 62
   250
100
AcDbSpline
210
0.0
220
0.0
230
1.0
 70
    24
 71
     3
 72
     8
 73
     4
 74
     0
 42
0.0000000001
 43
0.0000000001
 40
0.0
 40
0.0
 40
0.0
 40
0.0
 40
1.0
 40
1.0
 40
1.0
 40
1.0
 10
-19.3133
 20
27.7799
 30
0.0
 10
-19.3133
 20
27.7799
 30
0.0
 10
-19.3133
 20
30.9119
 30
0.0
 10
-19.3133
 20
30.9119
 30
0.0
  0
SPLINE
  5
45
330
1F
100
AcDbEntity
  8
VRSTVA_1
 62
   250
100
AcDbSpline
210
0.0
220
0.0
230
1.0
 70
    24
 71
     3
 72
     8
 73
     4
 74
     0
 42
0.0000000001
 43
0.0000000001
 40
0.0
 40
0.0
 40
0.0
 40
0.0
 40
1.0
 40
1.0
 40
1.0
 40
1.0
 10
-13.7276
 20
30.2976
 30
0.0
 10
-13.7276
 20
30.2976
 30
0.0
 10
-34.6586
 20
30.2976
 30
0.0
 10
-34.6586
 20
30.2976
 30
0.0
  0
SPLINE
  5
46
330
1F
100
AcDbEntity
  8
VRSTVA_1
 62
   250
100
AcDbSpline
210
0.0
220
0.0
230
1.0
 70
    24
 71
     3
 72
     8
 73
     4
 74
     0
 42
0.0000000001
 43
0.0000000001
 40
0.0
 40
0.0
 40
0.0
 40
0.0
 40
1.0
 40
1.0
 40
1.0
 40
1.0
 10
-36.5762
 20
27.4697
 30
0.0
 10
-36.5762
 20
27.4697
 30
0.0
 10
-31.7461
 20
27.4697
 30
0.0
 10
-31.7461
 20
27.4697
 30
0.0
  0
SPLINE
  5
47
330
1F
100
AcDbEntity
  8
VRSTVA_1
 62
   250
100
AcDbSpline
210
0.0
220
0.0
230
1.0
 70
    24
 71
     3
 72
     8
 73
     4
 74
     0
 42
0.0000000001
 43
0.0000000001
 40
0.0
 40
0.0
 40
0.0
 40
0.0
 40
1.0
 40
1.0
 40
1.0
 40
1.0
 10
-35.4388
 20
-5.8419
 30
0.0
 10
-35.4388
 20
-5.8419
 30
0.0
 10
-35.4388
 20
-32.3032
 30
0.0
 10
-35.4388
 20
-32.3032
 30
0.0
  0
SPLINE
  5
48
330
1F
100
AcDbEntity
  8
VRSTVA_1
  6
NEW_LINE1
 62
   250
100
AcDbSpline
210
0.0
220
0.0
230
1.0
 70
    24
 71
     3
 72
     8
 73
     4
 74
     0
 42
0.0000000001
 43
0.0000000001
 40
0.0
 40
0.0
 40
0.0
 40
0.0
 40
1.0
 40
1.0
 40
1.0
 40
1.0
 10
-24.6837
 20
-5.9624
 30
0.0
 10
-24.6837
 20
-5.9624
 30
0.0
 10
-24.6837
 20
29.5526
 30
0.0
 10
-24.6837
 20
29.5526
 30
0.0
  0
SPLINE
  5
4A
330
1F
100
AcDbEntity
  8
VRSTVA_1
 62
   250
100
AcDbSpline
210
0.0
220
0.0
230
1.0
 70
    11
 71
     3
 72
   120
 73
   116
 74
     0
 42
0.0000000001
 43
0.0000000001
 40
0.0
 40
0.0
 40
0.0
 40
0.0
 40
0.0333333333333333
 40
0.0333333333333333
 40
0.0333333333333333
 40
0.0333333333333333
 40
0.0666666666666667
 40
0.0666666666666667
 40
0.0666666666666667
 40
0.0666666666666667
 40
0.1
 40
0.1
 40
0.1
 40
0.1
 40
0.1333333333333333
 40
0.1333333333333333
 40
0.1333333333333333
 40
0.1333333333333333
 40
0.1666666666666667
 40
0.1666666666666667
 40
0.1666666666666667
 40
0.1666666666666667
 40
0.2
 40
0.2
 40
0.2
 40
0.2
 40
0.2333333333333333
 40
0.2333333333333333
 40
0.2333333333333333
 40
0.2333333333333333
 40
0.2666666666666667
 40
0.2666666666666667
 40
0.2666666666666667
 40
0.2666666666666667
 40
0.3
 40
0.3
 40
0.3
 40
0.3
 40
0.3333333333333333
 40
0.3333333333333333
 40
0.3333333333333333
 40
0.3333333333333333
 40
0.3666666666666666
 40
0.3666666666666666
 40
0.3666666666666666
 40
0.3666666666666666
 40
0.4
 40
0.4
 40
0.4
 40
0.4
 40
0.4333333333333333
 40
0.4333333333333333
 40
0.4333333333333333
 40
0.4333333333333333
 40
0.4666666666666667
 40
0.4666666666666667
 40
0.4666666666666667
 40
0.4666666666666667
 40
0.5
 40
0.5
 40
0.5
 40
0.5
 40
0.5333333333333333
 40
0.5333333333333333
 40
0.5333333333333333
 40
0.5333333333333333
 40
0.5666666666666667
 40
0.5666666666666667
 40
0.5666666666666667
 40
0.5666666666666667
 40
0.6
 40
0.6
 40
0.6
 40
0.6
 40
0.6333333333333333
 40
0.6333333333333333
 40
0.6333333333333333
 40
0.6333333333333333
 40
0.6666666666666666
 40
0.6666666666666666
 40
0.6666666666666666
 40
0.6666666666666666
 40
0.7
 40
0.7
 40
0.7
 40
0.7
 40
0.7333333333333333
 40
0.7333333333333333
 40
0.7333333333333333
 40
0.7333333333333333
 40
0.7666666666666667
 40
0.7666666666666667
 40
0.7666666666666667
 40
0.7666666666666667
 40
0.8
 40
0.8
 40
0.8
 40
0.8
 40
0.8333333333333334
 40
0.8333333333333334
 40
0.8333333333333334
 40
0.8333333333333334
 40
0.8666666666666667
 40
0.8666666666666667
 40
0.8666666666666667
 40
0.8666666666666667
 40
0.9
 40
0.9
 40
0.9
 40
0.9
 40
0.9333333333333333
 40
0.9333333333333333
 40
0.9333333333333333
 40
0.9333333333333333
 40
1.0
 40
1.0
 40
1.0
 40
1.0
 10
-27.5027
 20
32.3553
 30
0.0
 10
-27.5027
 20
32.3553
 30
0.0
 10
-27.5027
 20
32.6215
 30
0.0
 10
-27.5027
 20
32.6215
 30
0.0
 10
-27.5027
 20
32.6215
 30
0.0
 10
-27.5027
 20
32.6215
 30
0.0
 10
-26.5401
 20
32.6231
 30
0.0
 10
-26.5401
 20
32.6231
 30
0.0
 10
-26.5401
 20
32.6231
 30
0.0
 10
-26.5401
 20
32.6231
 30
0.0
 10
-26.5401
 20
31.7801
 30
0.0
 10
-26.5401
 20
31.7801
 30
0.0
 10
-26.5401
 20
31.7801
 30
0.0
 10
-26.6878
 20
31.6621
 30
0.0
 10
-26.8402
 20
31.5738
 30
0.0
 10
-26.9973
 20
31.514
 30
0.0
 10
-26.9973
 20
31.514
 30
0.0
 10
-27.1545
 20
31.4547
 30
0.0
 10
-27.3159
 20
31.4251
 30
0.0
 10
-27.481
 20
31.4251
 30
0.0
 10
-27.481
 20
31.4251
 30
0.0
 10
-27.7043
 20
31.4251
 30
0.0
 10
-27.9075
 20
31.4727
 30
0.0
 10
-28.0895
 20
31.5685
 30
0.0
 10
-28.0895
 20
31.5685
 30
0.0
 10
-28.2721
 20
31.6637
 30
0.0
 10
-28.4097
 20
31.8024
 30
0.0
 10
-28.5028
 20
31.9828
 30
0.0
 10
-28.5028
 20
31.9828
 30
0.0
 10
-28.5959
 20
32.1638
 30
0.0
 10
-28.6425
 20
32.3659
 30
0.0
 10
-28.6425
 20
32.5892
 30
0.0
 10
-28.6425
 20
32.5892
 30
0.0
 10
-28.6425
 20
32.8104
 30
0.0
 10
-28.5959
 20
33.0168
 30
0.0
 10
-28.5033
 20
33.2084
 30
0.0
 10
-28.5033
 20
33.2084
 30
0.0
 10
-28.4112
 20
33.4005
 30
0.0
 10
-28.2779
 20
33.5428
 30
0.0
 10
-28.1043
 20
33.6359
 30
0.0
 10
-28.1043
 20
33.6359
 30
0.0
 10
-27.9308
 20
33.7285
 30
0.0
 10
-27.7307
 20
33.7751
 30
0.0
 10
-27.5043
 20
33.7751
 30
0.0
 10
-27.5043
 20
33.7751
 30
0.0
 10
-27.3402
 20
33.7751
 30
0.0
 10
-27.1915
 20
33.7486
 30
0.0
 10
-27.0587
 20
33.6952
 30
0.0
 10
-27.0587
 20
33.6952
 30
0.0
 10
-26.9259
 20
33.6423
 30
0.0
 10
-26.8216
 20
33.5682
 30
0.0
 10
-26.7465
 20
33.4729
 30
0.0
 10
-26.7465
 20
33.4729
 30
0.0
 10
-26.6708
 20
33.3777
 30
0.0
 10
-26.6137
 20
33.2539
 30
0.0
 10
-26.574
 20
33.1009
 30
0.0
 10
-26.574
 20
33.1009
 30
0.0
 10
-26.574
 20
33.1009
 30
0.0
 10
-26.8454
 20
33.0263
 30
0.0
 10
-26.8454
 20
33.0263
 30
0.0
 10
-26.8454
 20
33.0263
 30
0.0
 10
-26.8798
 20
33.1422
 30
0.0
 10
-26.9222
 20
33.2332
 30
0.0
 10
-26.9724
 20
33.2994
 30
0.0
 10
-26.9724
 20
33.2994
 30
0.0
 10
-27.0232
 20
33.3655
 30
0.0
 10
-27.0957
 20
33.4184
 30
0.0
 10
-27.1899
 20
33.4581
 30
0.0
 10
-27.1899
 20
33.4581
 30
0.0
 10
-27.2836
 20
33.4978
 30
0.0
 10
-27.3884
 20
33.5179
 30
0.0
 10
-27.5027
 20
33.5179
 30
0.0
 10
-27.5027
 20
33.5179
 30
0.0
 10
-27.6403
 20
33.5179
 30
0.0
 10
-27.7593
 20
33.4968
 30
0.0
 10
-27.8593
 20
33.455
 30
0.0
 10
-27.8593
 20
33.455
 30
0.0
 10
-27.9599
 20
33.4132
 30
0.0
 10
-28.0403
 20
33.3581
 30
0.0
 10
-28.1022
 20
33.2899
 30
0.0
 10
-28.1022
 20
33.2899
 30
0.0
 10
-28.1636
 20
33.2216
 30
0.0
 10
-28.2112
 20
33.147
 30
0.0
 10
-28.2456
 20
33.065
 30
0.0
 10
-28.2456
 20
33.065
 30
0.0
 10
-28.3033
 20
32.9247
 30
0.0
 10
-28.3324
 20
32.7723
 30
0.0
 10
-28.3324
 20
32.6078
 30
0.0
 10
-28.3324
 20
32.6078
 30
0.0
 10
-28.3324
 20
32.4051
 30
0.0
 10
-28.2975
 20
32.2358
 30
0.0
 10
-28.2276
 20
32.0992
 30
0.0
 10
-28.2276
 20
32.0992
 30
0.0
 10
-28.1578
 20
31.9627
 30
0.0
 10
-28.0562
 20
31.8616
 30
0.0
 10
-27.9228
 20
31.7955
 30
0.0
 10
-27.9228
 20
31.7955
 30
0.0
 10
-27.7895
 20
31.7293
 30
0.0
 10
-27.6482
 20
31.696
 30
0.0
 10
-27.4984
 20
31.696
 30
0.0
 10
-27.4984
 20
31.696
 30
0.0
 10
-27.3677
 20
31.696
 30
0.0
 10
-27.2407
 20
31.7214
 30
0.0
 10
-27.1169
 20
31.7717
 30
0.0
 10
-27.1169
 20
31.7717
 30
0.0
 10
-26.9926
 20
31.8214
 30
0.0
 10
-26.8989
 20
31.8749
 30
0.0
 10
-26.8349
 20
31.932
 30
0.0
 10
-26.8349
 20
31.932
 30
0.0
 10
-26.8349
 20
31.932
 30
0.0
 10
-26.8349
 20
32.3553
 30
0.0
 10
-26.8349
 20
32.3553
 30
0.0
 10
-26.8349
 20
32.3553
 30
0.0
 10
-26.8349
 20
32.3553
 30
0.0
 10
-27.5027
 20
32.3553
 30
0.0
 10
-27.5027
 20
32.3553
 30
0.0
  0
SPLINE
  5
4B
330
1F
100
AcDbEntity
  8
VRSTVA_1
 62
   250
100
AcDbSpline
210
0.0
220
0.0
230
1.0
 70
    11
 71
     3
 72
    92
 73
    88
 74
     0
 42
0.0000000001
 43
0.0000000001
 40
0.0
 40
0.0
 40
0.0
 40
0.0
 40
0.0434782608695652
 40
0.0434782608695652
 40
0.0434782608695652
 40
0.0434782608695652
 40
0.0869565217391304
 40
0.0869565217391304
 40
0.0869565217391304
 40
0.0869565217391304
 40
0.1304347826086956
 40
0.1304347826086956
 40
0.1304347826086956
 40
0.1304347826086956
 40
0.1739130434782609
 40
0.1739130434782609
 40
0.1739130434782609
 40
0.1739130434782609
 40
0.2173913043478261
 40
0.2173913043478261
 40
0.2173913043478261
 40
0.2173913043478261
 40
0.2608695652173913
 40
0.2608695652173913
 40
0.2608695652173913
 40
0.2608695652173913
 40
0.3043478260869565
 40
0.3043478260869565
 40
0.3043478260869565
 40
0.3043478260869565
 40
0.3478260869565217
 40
0.3478260869565217
 40
0.3478260869565217
 40
0.3478260869565217
 40
0.391304347826087
 40
0.391304347826087
 40
0.391304347826087
 40
0.391304347826087
 40
0.4347826086956522
 40
0.4347826086956522
 40
0.4347826086956522
 40
0.4347826086956522
 40
0.4782608695652174
 40
0.4782608695652174
 40
0.4782608695652174
 40
0.4782608695652174
 40
0.5217391304347826
 40
0.5217391304347826
 40
0.5217391304347826
 40
0.5217391304347826
 40
0.5652173913043478
 40
0.5652173913043478
 40
0.5652173913043478
 40
0.5652173913043478
 40
0.6086956521739131
 40
0.6086956521739131
 40
0.6086956521739131
 40
0.6086956521739131
 40
0.6521739130434783
 40
0.6521739130434783
 40
0.6521739130434783
 40
0.6521739130434783
 40
0.6956521739130435
 40
0.6956521739130435
 40
0.6956521739130435
 40
0.6956521739130435
 40
0.7391304347826086
 40
0.7391304347826086
 40
0.7391304347826086
 40
0.7391304347826086
 40
0.782608695652174
 40
0.782608695652174
 40
0.782608695652174
 40
0.782608695652174
 40
0.8260869565217391
 40
0.8260869565217391
 40
0.8260869565217391
 40
0.8260869565217391
 40
0.8695652173913043
 40
0.8695652173913043
 40
0.8695652173913043
 40
0.8695652173913043
 40
0.9130434782608695
 40
0.9130434782608695
 40
0.9130434782608695
 40
0.9130434782608695
 40
1.0
 40
1.0
 40
1.0
 40
1.0
 10
-25.3278
 20
32.059
 30
0.0
 10
-25.3278
 20
32.059
 30
0.0
 10
-25.0347
 20
32.0839
 30
0.0
 10
-25.0347
 20
32.0839
 30
0.0
 10
-25.0347
 20
32.0839
 30
0.0
 10
-25.013
 20
31.941
 30
0.0
 10
-24.9627
 20
31.8341
 30
0.0
 10
-24.8839
 20
31.7622
 30
0.0
 10
-24.8839
 20
31.7622
 30
0.0
 10
-24.8045
 20
31.6902
 30
0.0
 10
-24.7092
 20
31.6542
 30
0.0
 10
-24.5976
 20
31.6542
 30
0.0
 10
-24.5976
 20
31.6542
 30
0.0
 10
-24.4632
 20
31.6542
 30
0.0
 10
-24.3494
 20
31.705
 30
0.0
 10
-24.2568
 20
31.8061
 30
0.0
 10
-24.2568
 20
31.8061
 30
0.0
 10
-24.1637
 20
31.9077
 30
0.0
 10
-24.1171
 20
32.0421
 30
0.0
 10
-24.1171
 20
32.2093
 30
0.0
 10
-24.1171
 20
32.2093
 30
0.0
 10
-24.1171
 20
32.3686
 30
0.0
 10
-24.1616
 20
32.494
 30
0.0
 10
-24.251
 20
32.5861
 30
0.0
 10
-24.251
 20
32.5861
 30
0.0
 10
-24.3404
 20
32.6781
 30
0.0
 10
-24.4574
 20
32.7242
 30
0.0
 10
-24.6023
 20
32.7242
 30
0.0
 10
-24.6023
 20
32.7242
 30
0.0
 10
-24.6923
 20
32.7242
 30
0.0
 10
-24.7733
 20
32.7035
 30
0.0
 10
-24.8458
 20
32.6628
 30
0.0
 10
-24.8458
 20
32.6628
 30
0.0
 10
-24.9183
 20
32.622
 30
0.0
 10
-24.9749
 20
32.5691
 30
0.0
 10
-25.0162
 20
32.504
 30
0.0
 10
-25.0162
 20
32.504
 30
0.0
 10
-25.0162
 20
32.504
 30
0.0
 10
-25.2781
 20
32.5379
 30
0.0
 10
-25.2781
 20
32.5379
 30
0.0
 10
-25.2781
 20
32.5379
 30
0.0
 10
-25.2781
 20
32.5379
 30
0.0
 10
-25.058
 20
33.7053
 30
0.0
 10
-25.058
 20
33.7053
 30
0.0
 10
-25.058
 20
33.7053
 30
0.0
 10
-25.058
 20
33.7053
 30
0.0
 10
-23.9277
 20
33.7053
 30
0.0
 10
-23.9277
 20
33.7053
 30
0.0
 10
-23.9277
 20
33.7053
 30
0.0
 10
-23.9277
 20
33.7053
 30
0.0
 10
-23.9277
 20
33.4386
 30
0.0
 10
-23.9277
 20
33.4386
 30
0.0
 10
-23.9277
 20
33.4386
 30
0.0
 10
-23.9277
 20
33.4386
 30
0.0
 10
-24.8347
 20
33.4386
 30
0.0
 10
-24.8347
 20
33.4386
 30
0.0
 10
-24.8347
 20
33.4386
 30
0.0
 10
-24.8347
 20
33.4386
 30
0.0
 10
-24.9574
 20
32.8279
 30
0.0
 10
-24.9574
 20
32.8279
 30
0.0
 10
-24.9574
 20
32.8279
 30
0.0
 10
-24.8209
 20
32.9231
 30
0.0
 10
-24.6775
 20
32.9708
 30
0.0
 10
-24.5277
 20
32.9708
 30
0.0
 10
-24.5277
 20
32.9708
 30
0.0
 10
-24.3293
 20
32.9708
 30
0.0
 10
-24.1621
 20
32.902
 30
0.0
 10
-24.0256
 20
32.7644
 30
0.0
 10
-24.0256
 20
32.7644
 30
0.0
 10
-23.889
 20
32.6268
 30
0.0
 10
-23.8208
 20
32.4501
 30
0.0
 10
-23.8208
 20
32.2342
 30
0.0
 10
-23.8208
 20
32.2342
 30
0.0
 10
-23.8208
 20
32.0283
 30
0.0
 10
-23.8811
 20
31.8505
 30
0.0
 10
-24.0007
 20
31.7008
 30
0.0
 10
-24.0007
 20
31.7008
 30
0.0
 10
-24.1467
 20
31.5171
 30
0.0
 10
-24.3457
 20
31.4251
 30
0.0
 10
-24.5976
 20
31.4251
 30
0.0
 10
-24.5976
 20
31.4251
 30
0.0
 10
-24.8045
 20
31.4251
 30
0.0
 10
-24.9733
 20
31.4828
 30
0.0
 10
-25.104
 20
31.5986
 30
0.0
 10
-25.104
 20
31.5986
 30
0.0
 10
-25.2347
 20
31.7145
 30
0.0
 10
-25.3093
 20
31.868
 30
0.0
 10
-25.3278
 20
32.059
 30
0.0
  0
SPLINE
  5
4C
330
1F
100
AcDbEntity
  8
VRSTVA_1
 62
   250
100
AcDbSpline
210
0.0
220
0.0
230
1.0
 70
    11
 71
     3
 72
    20
 73
    16
 74
     0
 42
0.0000000001
 43
0.0000000001
 40
0.0
 40
0.0
 40
0.0
 40
0.0
 40
0.2
 40
0.2
 40
0.2
 40
0.2
 40
0.4
 40
0.4
 40
0.4
 40
0.4
 40
0.6
 40
0.6
 40
0.6
 40
0.6
 40
1.0
 40
1.0
 40
1.0
 40
1.0
 10
-23.6938
 20
31.4251
 30
0.0
 10
-23.6938
 20
31.4251
 30
0.0
 10
-23.035
 20
33.7751
 30
0.0
 10
-23.035
 20
33.7751
 30
0.0
 10
-23.035
 20
33.7751
 30
0.0
 10
-23.035
 20
33.7751
 30
0.0
 10
-22.8117
 20
33.7751
 30
0.0
 10
-22.8117
 20
33.7751
 30
0.0
 10
-22.8117
 20
33.7751
 30
0.0
 10
-22.8117
 20
33.7751
 30
0.0
 10
-23.4689
 20
31.4251
 30
0.0
 10
-23.4689
 20
31.4251
 30
0.0
 10
-23.4689
 20
31.4251
 30
0.0
 10
-23.4689
 20
31.4251
 30
0.0
 10
-23.6938
 20
31.4251
 30
0.0
 10
-23.6938
 20
31.4251
 30
0.0
  0
SPLINE
  5
4D
330
1F
100
AcDbEntity
  8
VRSTVA_1
 62
   250
100
AcDbSpline
210
0.0
220
0.0
230
1.0
 70
    11
 71
     3
 72
    48
 73
    44
 74
     0
 42
0.0000000001
 43
0.0000000001
 40
0.0
 40
0.0
 40
0.0
 40
0.0
 40
0.0833333333333333
 40
0.0833333333333333
 40
0.0833333333333333
 40
0.0833333333333333
 40
0.1666666666666667
 40
0.1666666666666667
 40
0.1666666666666667
 40
0.1666666666666667
 40
0.25
 40
0.25
 40
0.25
 40
0.25
 40
0.3333333333333333
 40
0.3333333333333333
 40
0.3333333333333333
 40
0.3333333333333333
 40
0.4166666666666667
 40
0.4166666666666667
 40
0.4166666666666667
 40
0.4166666666666667
 40
0.5
 40
0.5
 40
0.5
 40
0.5
 40
0.5833333333333334
 40
0.5833333333333334
 40
0.5833333333333334
 40
0.5833333333333334
 40
0.6666666666666666
 40
0.6666666666666666
 40
0.6666666666666666
 40
0.6666666666666666
 40
0.75
 40
0.75
 40
0.75
 40
0.75
 40
0.8333333333333334
 40
0.8333333333333334
 40
0.8333333333333334
 40
0.8333333333333334
 40
1.0
 40
1.0
 40
1.0
 40
1.0
 10
-21.7856
 20
31.4637
 30
0.0
 10
-21.7856
 20
31.4637
 30
0.0
 10
-21.7856
 20
32.0077
 30
0.0
 10
-21.7856
 20
32.0077
 30
0.0
 10
-21.7856
 20
32.0077
 30
0.0
 10
-21.7856
 20
32.0077
 30
0.0
 10
-22.7715
 20
32.0077
 30
0.0
 10
-22.7715
 20
32.0077
 30
0.0
 10
-22.7715
 20
32.0077
 30
0.0
 10
-22.7715
 20
32.0077
 30
0.0
 10
-22.7715
 20
32.2638
 30
0.0
 10
-22.7715
 20
32.2638
 30
0.0
 10
-22.7715
 20
32.2638
 30
0.0
 10
-22.7715
 20
32.2638
 30
0.0
 10
-21.7343
 20
33.7365
 30
0.0
 10
-21.7343
 20
33.7365
 30
0.0
 10
-21.7343
 20
33.7365
 30
0.0
 10
-21.7343
 20
33.7365
 30
0.0
 10
-21.5062
 20
33.7365
 30
0.0
 10
-21.5062
 20
33.7365
 30
0.0
 10
-21.5062
 20
33.7365
 30
0.0
 10
-21.5062
 20
33.7365
 30
0.0
 10
-21.5062
 20
32.2638
 30
0.0
 10
-21.5062
 20
32.2638
 30
0.0
 10
-21.5062
 20
32.2638
 30
0.0
 10
-21.5062
 20
32.2638
 30
0.0
 10
-21.1993
 20
32.2638
 30
0.0
 10
-21.1993
 20
32.2638
 30
0.0
 10
-21.1993
 20
32.2638
 30
0.0
 10
-21.1993
 20
32.2638
 30
0.0
 10
-21.1993
 20
32.0077
 30
0.0
 10
-21.1993
 20
32.0077
 30
0.0
 10
-21.1993
 20
32.0077
 30
0.0
 10
-21.1993
 20
32.0077
 30
0.0
 10
-21.5062
 20
32.0077
 30
0.0
 10
-21.5062
 20
32.0077
 30
0.0
 10
-21.5062
 20
32.0077
 30
0.0
 10
-21.5062
 20
32.0077
 30
0.0
 10
-21.5062
 20
31.4637
 30
0.0
 10
-21.5062
 20
31.4637
 30
0.0
 10
-21.5062
 20
31.4637
 30
0.0
 10
-21.5062
 20
31.4637
 30
0.0
 10
-21.7856
 20
31.4637
 30
0.0
 10
-21.7856
 20
31.4637
 30
0.0
  0
SPLINE
  5
4E
330
1F
100
AcDbEntity
  8
VRSTVA_1
 62
   250
100
AcDbSpline
210
0.0
220
0.0
230
1.0
 70
    11
 71
     3
 72
    16
 73
    12
 74
     0
 42
0.0000000001
 43
0.0000000001
 40
0.0
 40
0.0
 40
0.0
 40
0.0
 40
0.25
 40
0.25
 40
0.25
 40
0.25
 40
0.5
 40
0.5
 40
0.5
 40
0.5
 40
1.0
 40
1.0
 40
1.0
 40
1.0
 10
-21.7856
 20
32.2638
 30
0.0
 10
-21.7856
 20
32.2638
 30
0.0
 10
-21.7856
 20
33.2883
 30
0.0
 10
-21.7856
 20
33.2883
 30
0.0
 10
-21.7856
 20
33.2883
 30
0.0
 10
-21.7856
 20
33.2883
 30
0.0
 10
-22.4968
 20
32.2638
 30
0.0
 10
-22.4968
 20
32.2638
 30
0.0
 10
-22.4968
 20
32.2638
 30
0.0
 10
-22.4968
 20
32.2638
 30
0.0
 10
-21.7856
 20
32.2638
 30
0.0
 10
-21.7856
 20
32.2638
 30
0.0
  0
SPLINE
  5
4F
330
1F
100
AcDbEntity
  8
VRSTVA_1
 62
   250
100
AcDbSpline
210
0.0
220
0.0
230
1.0
 70
    11
 71
     3
 72
    28
 73
    24
 74
     0
 42
0.0000000001
 43
0.0000000001
 40
0.0
 40
0.0
 40
0.0
 40
0.0
 40
0.1428571428571428
 40
0.1428571428571428
 40
0.1428571428571428
 40
0.1428571428571428
 40
0.2857142857142857
 40
0.2857142857142857
 40
0.2857142857142857
 40
0.2857142857142857
 40
0.4285714285714285
 40
0.4285714285714285
 40
0.4285714285714285
 40
0.4285714285714285
 40
0.5714285714285714
 40
0.5714285714285714
 40
0.5714285714285714
 40
0.5714285714285714
 40
0.7142857142857143
 40
0.7142857142857143
 40
0.7142857142857143
 40
0.7142857142857143
 40
1.0
 40
1.0
 40
1.0
 40
1.0
 10
-20.8226
 20
32.9316
 30
0.0
 10
-20.8226
 20
32.9316
 30
0.0
 10
-20.9004
 20
33.3645
 30
0.0
 10
-20.9004
 20
33.3645
 30
0.0
 10
-20.9004
 20
33.3645
 30
0.0
 10
-20.9004
 20
33.3645
 30
0.0
 10
-20.9004
 20
33.7365
 30
0.0
 10
-20.9004
 20
33.7365
 30
0.0
 10
-20.9004
 20
33.7365
 30
0.0
 10
-20.9004
 20
33.7365
 30
0.0
 10
-20.5823
 20
33.7365
 30
0.0
 10
-20.5823
 20
33.7365
 30
0.0
 10
-20.5823
 20
33.7365
 30
0.0
 10
-20.5823
 20
33.7365
 30
0.0
 10
-20.5823
 20
33.3645
 30
0.0
 10
-20.5823
 20
33.3645
 30
0.0
 10
-20.5823
 20
33.3645
 30
0.0
 10
-20.5823
 20
33.3645
 30
0.0
 10
-20.6522
 20
32.9316
 30
0.0
 10
-20.6522
 20
32.9316
 30
0.0
 10
-20.6522
 20
32.9316
 30
0.0
 10
-20.6522
 20
32.9316
 30
0.0
 10
-20.8226
 20
32.9316
 30
0.0
 10
-20.8226
 20
32.9316
 30
0.0
  0
SPLINE
  5
50
330
1F
100
AcDbEntity
  8
VRSTVA_1
 62
   250
100
AcDbSpline
210
0.0
220
0.0
230
1.0
 70
    11
 71
     3
 72
    28
 73
    24
 74
     0
 42
0.0000000001
 43
0.0000000001
 40
0.0
 40
0.0
 40
0.0
 40
0.0
 40
0.1428571428571428
 40
0.1428571428571428
 40
0.1428571428571428
 40
0.1428571428571428
 40
0.2857142857142857
 40
0.2857142857142857
 40
0.2857142857142857
 40
0.2857142857142857
 40
0.4285714285714285
 40
0.4285714285714285
 40
0.4285714285714285
 40
0.4285714285714285
 40
0.5714285714285714
 40
0.5714285714285714
 40
0.5714285714285714
 40
0.5714285714285714
 40
0.7142857142857143
 40
0.7142857142857143
 40
0.7142857142857143
 40
0.7142857142857143
 40
1.0
 40
1.0
 40
1.0
 40
1.0
 10
-20.3093
 20
32.9316
 30
0.0
 10
-20.3093
 20
32.9316
 30
0.0
 10
-20.3855
 20
33.3645
 30
0.0
 10
-20.3855
 20
33.3645
 30
0.0
 10
-20.3855
 20
33.3645
 30
0.0
 10
-20.3855
 20
33.3645
 30
0.0
 10
-20.3855
 20
33.7365
 30
0.0
 10
-20.3855
 20
33.7365
 30
0.0
 10
-20.3855
 20
33.7365
 30
0.0
 10
-20.3855
 20
33.7365
 30
0.0
 10
-20.0675
 20
33.7365
 30
0.0
 10
-20.0675
 20
33.7365
 30
0.0
 10
-20.0675
 20
33.7365
 30
0.0
 10
-20.0675
 20
33.7365
 30
0.0
 10
-20.0675
 20
33.3645
 30
0.0
 10
-20.0675
 20
33.3645
 30
0.0
 10
-20.0675
 20
33.3645
 30
0.0
 10
-20.0675
 20
33.3645
 30
0.0
 10
-20.1421
 20
32.9316
 30
0.0
 10
-20.1421
 20
32.9316
 30
0.0
 10
-20.1421
 20
32.9316
 30
0.0
 10
-20.1421
 20
32.9316
 30
0.0
 10
-20.3093
 20
32.9316
 30
0.0
 10
-20.3093
 20
32.9316
 30
0.0
  0
SPLINE
  5
51
330
1F
100
AcDbEntity
  8
VRSTVA_1
 62
   250
100
AcDbSpline
210
0.0
220
0.0
230
1.0
 70
    11
 71
     3
 72
   116
 73
   112
 74
     0
 42
0.0000000001
 43
0.0000000001
 40
0.0
 40
0.0
 40
0.0
 40
0.0
 40
0.0344827586206897
 40
0.0344827586206897
 40
0.0344827586206897
 40
0.0344827586206897
 40
0.0689655172413793
 40
0.0689655172413793
 40
0.0689655172413793
 40
0.0689655172413793
 40
0.103448275862069
 40
0.103448275862069
 40
0.103448275862069
 40
0.103448275862069
 40
0.1379310344827586
 40
0.1379310344827586
 40
0.1379310344827586
 40
0.1379310344827586
 40
0.1724137931034483
 40
0.1724137931034483
 40
0.1724137931034483
 40
0.1724137931034483
 40
0.2068965517241379
 40
0.2068965517241379
 40
0.2068965517241379
 40
0.2068965517241379
 40
0.2413793103448276
 40
0.2413793103448276
 40
0.2413793103448276
 40
0.2413793103448276
 40
0.2758620689655172
 40
0.2758620689655172
 40
0.2758620689655172
 40
0.2758620689655172
 40
0.3103448275862069
 40
0.3103448275862069
 40
0.3103448275862069
 40
0.3103448275862069
 40
0.3448275862068966
 40
0.3448275862068966
 40
0.3448275862068966
 40
0.3448275862068966
 40
0.3793103448275862
 40
0.3793103448275862
 40
0.3793103448275862
 40
0.3793103448275862
 40
0.4137931034482759
 40
0.4137931034482759
 40
0.4137931034482759
 40
0.4137931034482759
 40
0.4482758620689655
 40
0.4482758620689655
 40
0.4482758620689655
 40
0.4482758620689655
 40
0.4827586206896552
 40
0.4827586206896552
 40
0.4827586206896552
 40
0.4827586206896552
 40
0.5172413793103449
 40
0.5172413793103449
 40
0.5172413793103449
 40
0.5172413793103449
 40
0.5517241379310345
 40
0.5517241379310345
 40
0.5517241379310345
 40
0.5517241379310345
 40
0.5862068965517241
 40
0.5862068965517241
 40
0.5862068965517241
 40
0.5862068965517241
 40
0.6206896551724138
 40
0.6206896551724138
 40
0.6206896551724138
 40
0.6206896551724138
 40
0.6551724137931034
 40
0.6551724137931034
 40
0.6551724137931034
 40
0.6551724137931034
 40
0.6896551724137931
 40
0.6896551724137931
 40
0.6896551724137931
 40
0.6896551724137931
 40
0.7241379310344828
 40
0.7241379310344828
 40
0.7241379310344828
 40
0.7241379310344828
 40
0.7586206896551724
 40
0.7586206896551724
 40
0.7586206896551724
 40
0.7586206896551724
 40
0.7931034482758621
 40
0.7931034482758621
 40
0.7931034482758621
 40
0.7931034482758621
 40
0.8275862068965517
 40
0.8275862068965517
 40
0.8275862068965517
 40
0.8275862068965517
 40
0.8620689655172413
 40
0.8620689655172413
 40
0.8620689655172413
 40
0.8620689655172413
 40
0.896551724137931
 40
0.896551724137931
 40
0.896551724137931
 40
0.896551724137931
 40
0.9310344827586207
 40
0.9310344827586207
 40
0.9310344827586207
 40
0.9310344827586207
 40
1.0
 40
1.0
 40
1.0
 40
1.0
 10
2.0968
 20
16.2464
 30
0.0
 10
2.0968
 20
16.2464
 30
0.0
 10
2.0968
 20
17.8926
 30
0.0
 10
2.0968
 20
17.8926
 30
0.0
 10
2.0968
 20
17.8926
 30
0.0
 10
2.0968
 20
17.8926
 30
0.0
 10
2.346
 20
17.8926
 30
0.0
 10
2.346
 20
17.8926
 30
0.0
 10
2.346
 20
17.8926
 30
0.0
 10
2.346
 20
17.8926
 30
0.0
 10
2.346
 20
17.6619
 30
0.0
 10
2.346
 20
17.6619
 30
0.0
 10
2.346
 20
17.6619
 30
0.0
 10
2.3978
 20
17.7424
 30
0.0
 10
2.4666
 20
17.8074
 30
0.0
 10
2.5524
 20
17.8561
 30
0.0
 10
2.5524
 20
17.8561
 30
0.0
 10
2.6381
 20
17.9053
 30
0.0
 10
2.736
 20
17.9302
 30
0.0
 10
2.8455
 20
17.9302
 30
0.0
 10
2.8455
 20
17.9302
 30
0.0
 10
2.9672
 20
17.9302
 30
0.0
 10
3.0672
 20
17.9048
 30
0.0
 10
3.145
 20
17.854
 30
0.0
 10
3.145
 20
17.854
 30
0.0
 10
3.2233
 20
17.8032
 30
0.0
 10
3.2784
 20
17.7328
 30
0.0
 10
3.3101
 20
17.6418
 30
0.0
 10
3.3101
 20
17.6418
 30
0.0
 10
3.4408
 20
17.8339
 30
0.0
 10
3.6102
 20
17.9302
 30
0.0
 10
3.8187
 20
17.9302
 30
0.0
 10
3.8187
 20
17.9302
 30
0.0
 10
3.9822
 20
17.9302
 30
0.0
 10
4.1076
 20
17.8847
 30
0.0
 10
4.1954
 20
17.7942
 30
0.0
 10
4.1954
 20
17.7942
 30
0.0
 10
4.2833
 20
17.7037
 30
0.0
 10
4.3272
 20
17.5646
 30
0.0
 10
4.3272
 20
17.3767
 30
0.0
 10
4.3272
 20
17.3767
 30
0.0
 10
4.3272
 20
17.3767
 30
0.0
 10
4.3272
 20
16.2464
 30
0.0
 10
4.3272
 20
16.2464
 30
0.0
 10
4.3272
 20
16.2464
 30
0.0
 10
4.3272
 20
16.2464
 30
0.0
 10
4.0499
 20
16.2464
 30
0.0
 10
4.0499
 20
16.2464
 30
0.0
 10
4.0499
 20
16.2464
 30
0.0
 10
4.0499
 20
16.2464
 30
0.0
 10
4.0499
 20
17.2836
 30
0.0
 10
4.0499
 20
17.2836
 30
0.0
 10
4.0499
 20
17.2836
 30
0.0
 10
4.0499
 20
17.3952
 30
0.0
 10
4.0409
 20
17.4757
 30
0.0
 10
4.0229
 20
17.5249
 30
0.0
 10
4.0229
 20
17.5249
 30
0.0
 10
4.0044
 20
17.5736
 30
0.0
 10
3.9716
 20
17.6132
 30
0.0
 10
3.9245
 20
17.6434
 30
0.0
 10
3.9245
 20
17.6434
 30
0.0
 10
3.8769
 20
17.673
 30
0.0
 10
3.8208
 20
17.6884
 30
0.0
 10
3.7567
 20
17.6884
 30
0.0
 10
3.7567
 20
17.6884
 30
0.0
 10
3.6409
 20
17.6884
 30
0.0
 10
3.5451
 20
17.6498
 30
0.0
 10
3.4684
 20
17.5725
 30
0.0
 10
3.4684
 20
17.5725
 30
0.0
 10
3.3922
 20
17.4958
 30
0.0
 10
3.3535
 20
17.3725
 30
0.0
 10
3.3535
 20
17.2031
 30
0.0
 10
3.3535
 20
17.2031
 30
0.0
 10
3.3535
 20
17.2031
 30
0.0
 10
3.3535
 20
16.2464
 30
0.0
 10
3.3535
 20
16.2464
 30
0.0
 10
3.3535
 20
16.2464
 30
0.0
 10
3.3535
 20
16.2464
 30
0.0
 10
3.0747
 20
16.2464
 30
0.0
 10
3.0747
 20
16.2464
 30
0.0
 10
3.0747
 20
16.2464
 30
0.0
 10
3.0747
 20
16.2464
 30
0.0
 10
3.0747
 20
17.3158
 30
0.0
 10
3.0747
 20
17.3158
 30
0.0
 10
3.0747
 20
17.3158
 30
0.0
 10
3.0747
 20
17.4402
 30
0.0
 10
3.0519
 20
17.5333
 30
0.0
 10
3.0064
 20
17.5952
 30
0.0
 10
3.0064
 20
17.5952
 30
0.0
 10
2.9609
 20
17.6572
 30
0.0
 10
2.8868
 20
17.6884
 30
0.0
 10
2.7831
 20
17.6884
 30
0.0
 10
2.7831
 20
17.6884
 30
0.0
 10
2.7048
 20
17.6884
 30
0.0
 10
2.6323
 20
17.6677
 30
0.0
 10
2.5656
 20
17.6259
 30
0.0
 10
2.5656
 20
17.6259
 30
0.0
 10
2.4989
 20
17.5847
 30
0.0
 10
2.4502
 20
17.5243
 30
0.0
 10
2.4206
 20
17.445
 30
0.0
 10
2.4206
 20
17.445
 30
0.0
 10
2.3904
 20
17.3651
 30
0.0
 10
2.3756
 20
17.2502
 30
0.0
 10
2.3756
 20
17.1005
 30
0.0
 10
2.3756
 20
17.1005
 30
0.0
 10
2.3756
 20
17.1005
 30
0.0
 10
2.3756
 20
16.2464
 30
0.0
 10
2.3756
 20
16.2464
 30
0.0
 10
2.3756
 20
16.2464
 30
0.0
 10
2.3756
 20
16.2464
 30
0.0
 10
2.0968
 20
16.2464
 30
0.0
 10
2.0968
 20
16.2464
 30
0.0
  0
SPLINE
  5
52
330
1F
100
AcDbEntity
  8
VRSTVA_1
 62
   250
100
AcDbSpline
210
0.0
220
0.0
230
1.0
 70
    11
 71
     3
 72
   112
 73
   108
 74
     0
 42
0.0000000001
 43
0.0000000001
 40
0.0
 40
0.0
 40
0.0
 40
0.0
 40
0.0357142857142857
 40
0.0357142857142857
 40
0.0357142857142857
 40
0.0357142857142857
 40
0.0714285714285714
 40
0.0714285714285714
 40
0.0714285714285714
 40
0.0714285714285714
 40
0.1071428571428571
 40
0.1071428571428571
 40
0.1071428571428571
 40
0.1071428571428571
 40
0.1428571428571428
 40
0.1428571428571428
 40
0.1428571428571428
 40
0.1428571428571428
 40
0.1785714285714286
 40
0.1785714285714286
 40
0.1785714285714286
 40
0.1785714285714286
 40
0.2142857142857143
 40
0.2142857142857143
 40
0.2142857142857143
 40
0.2142857142857143
 40
0.25
 40
0.25
 40
0.25
 40
0.25
 40
0.2857142857142857
 40
0.2857142857142857
 40
0.2857142857142857
 40
0.2857142857142857
 40
0.3214285714285715
 40
0.3214285714285715
 40
0.3214285714285715
 40
0.3214285714285715
 40
0.3571428571428572
 40
0.3571428571428572
 40
0.3571428571428572
 40
0.3571428571428572
 40
0.3928571428571428
 40
0.3928571428571428
 40
0.3928571428571428
 40
0.3928571428571428
 40
0.4285714285714285
 40
0.4285714285714285
 40
0.4285714285714285
 40
0.4285714285714285
 40
0.4642857142857143
 40
0.4642857142857143
 40
0.4642857142857143
 40
0.4642857142857143
 40
0.5
 40
0.5
 40
0.5
 40
0.5
 40
0.5357142857142857
 40
0.5357142857142857
 40
0.5357142857142857
 40
0.5357142857142857
 40
0.5714285714285714
 40
0.5714285714285714
 40
0.5714285714285714
 40
0.5714285714285714
 40
0.6071428571428571
 40
0.6071428571428571
 40
0.6071428571428571
 40
0.6071428571428571
 40
0.6428571428571429
 40
0.6428571428571429
 40
0.6428571428571429
 40
0.6428571428571429
 40
0.6785714285714286
 40
0.6785714285714286
 40
0.6785714285714286
 40
0.6785714285714286
 40
0.7142857142857143
 40
0.7142857142857143
 40
0.7142857142857143
 40
0.7142857142857143
 40
0.75
 40
0.75
 40
0.75
 40
0.75
 40
0.7857142857142857
 40
0.7857142857142857
 40
0.7857142857142857
 40
0.7857142857142857
 40
0.8214285714285714
 40
0.8214285714285714
 40
0.8214285714285714
 40
0.8214285714285714
 40
0.8571428571428571
 40
0.8571428571428571
 40
0.8571428571428571
 40
0.8571428571428571
 40
0.8928571428571429
 40
0.8928571428571429
 40
0.8928571428571429
 40
0.8928571428571429
 40
0.9285714285714286
 40
0.9285714285714286
 40
0.9285714285714286
 40
0.9285714285714286
 40
1.0
 40
1.0
 40
1.0
 40
1.0
 10
5.8158
 20
16.4496
 30
0.0
 10
5.712
 20
16.3618
 30
0.0
 10
5.6126
 20
16.2998
 30
0.0
 10
5.5173
 20
16.2633
 30
0.0
 10
5.5173
 20
16.2633
 30
0.0
 10
5.4215
 20
16.2273
 30
0.0
 10
5.3189
 20
16.2094
 30
0.0
 10
5.2093
 20
16.2094
 30
0.0
 10
5.2093
 20
16.2094
 30
0.0
 10
5.0284
 20
16.2094
 30
0.0
 10
4.8897
 20
16.2533
 30
0.0
 10
4.7924
 20
16.3417
 30
0.0
 10
4.7924
 20
16.3417
 30
0.0
 10
4.6955
 20
16.43
 30
0.0
 10
4.6468
 20
16.5433
 30
0.0
 10
4.6468
 20
16.6803
 30
0.0
 10
4.6468
 20
16.6803
 30
0.0
 10
4.6468
 20
16.7613
 30
0.0
 10
4.6648
 20
16.8348
 30
0.0
 10
4.7019
 20
16.9015
 30
0.0
 10
4.7019
 20
16.9015
 30
0.0
 10
4.7384
 20
16.9682
 30
0.0
 10
4.7865
 20
17.0216
 30
0.0
 10
4.8458
 20
17.0618
 30
0.0
 10
4.8458
 20
17.0618
 30
0.0
 10
4.9056
 20
17.1021
 30
0.0
 10
4.9723
 20
17.1328
 30
0.0
 10
5.0469
 20
17.1534
 30
0.0
 10
5.0469
 20
17.1534
 30
0.0
 10
5.1014
 20
17.1677
 30
0.0
 10
5.1839
 20
17.182
 30
0.0
 10
5.2945
 20
17.1952
 30
0.0
 10
5.2945
 20
17.1952
 30
0.0
 10
5.52
 20
17.2222
 30
0.0
 10
5.6861
 20
17.2539
 30
0.0
 10
5.7925
 20
17.2915
 30
0.0
 10
5.7925
 20
17.2915
 30
0.0
 10
5.7935
 20
17.3296
 30
0.0
 10
5.7941
 20
17.3539
 30
0.0
 10
5.7941
 20
17.364
 30
0.0
 10
5.7941
 20
17.364
 30
0.0
 10
5.7941
 20
17.4778
 30
0.0
 10
5.7676
 20
17.5582
 30
0.0
 10
5.7147
 20
17.6042
 30
0.0
 10
5.7147
 20
17.6042
 30
0.0
 10
5.6438
 20
17.6677
 30
0.0
 10
5.5374
 20
17.699
 30
0.0
 10
5.3972
 20
17.699
 30
0.0
 10
5.3972
 20
17.699
 30
0.0
 10
5.266
 20
17.699
 30
0.0
 10
5.1691
 20
17.6762
 30
0.0
 10
5.1061
 20
17.6302
 30
0.0
 10
5.1061
 20
17.6302
 30
0.0
 10
5.0437
 20
17.5841
 30
0.0
 10
4.9977
 20
17.5026
 30
0.0
 10
4.9675
 20
17.3857
 30
0.0
 10
4.9675
 20
17.3857
 30
0.0
 10
4.9675
 20
17.3857
 30
0.0
 10
4.695
 20
17.4233
 30
0.0
 10
4.695
 20
17.4233
 30
0.0
 10
4.695
 20
17.4233
 30
0.0
 10
4.7199
 20
17.5397
 30
0.0
 10
4.7606
 20
17.6344
 30
0.0
 10
4.8172
 20
17.7058
 30
0.0
 10
4.8172
 20
17.7058
 30
0.0
 10
4.8738
 20
17.7778
 30
0.0
 10
4.9564
 20
17.8334
 30
0.0
 10
5.0638
 20
17.872
 30
0.0
 10
5.0638
 20
17.872
 30
0.0
 10
5.1712
 20
17.9106
 30
0.0
 10
5.2956
 20
17.9302
 30
0.0
 10
5.4374
 20
17.9302
 30
0.0
 10
5.4374
 20
17.9302
 30
0.0
 10
5.5782
 20
17.9302
 30
0.0
 10
5.6919
 20
17.9133
 30
0.0
 10
5.7798
 20
17.8805
 30
0.0
 10
5.7798
 20
17.8805
 30
0.0
 10
5.8676
 20
17.8471
 30
0.0
 10
5.9322
 20
17.8059
 30
0.0
 10
5.974
 20
17.7556
 30
0.0
 10
5.974
 20
17.7556
 30
0.0
 10
6.0153
 20
17.7053
 30
0.0
 10
6.0438
 20
17.6423
 30
0.0
 10
6.0608
 20
17.5656
 30
0.0
 10
6.0608
 20
17.5656
 30
0.0
 10
6.0698
 20
17.518
 30
0.0
 10
6.0745
 20
17.4323
 30
0.0
 10
6.0745
 20
17.3084
 30
0.0
 10
6.0745
 20
17.3084
 30
0.0
 10
6.0745
 20
17.3084
 30
0.0
 10
6.0745
 20
16.9364
 30
0.0
 10
6.0745
 20
16.9364
 30
0.0
 10
6.0745
 20
16.9364
 30
0.0
 10
6.0745
 20
16.6766
 30
0.0
 10
6.0803
 20
16.5126
 30
0.0
 10
6.0925
 20
16.4443
 30
0.0
 10
6.0925
 20
16.4443
 30
0.0
 10
6.1042
 20
16.3755
 30
0.0
 10
6.128
 20
16.3094
 30
0.0
 10
6.1629
 20
16.2464
 30
0.0
 10
6.1629
 20
16.2464
 30
0.0
 10
6.1629
 20
16.2464
 30
0.0
 10
5.8713
 20
16.2464
 30
0.0
 10
5.8713
 20
16.2464
 30
0.0
 10
5.8713
 20
16.2464
 30
0.0
 10
5.8427
 20
16.3041
 30
0.0
 10
5.8237
 20
16.3718
 30
0.0
 10
5.8158
 20
16.4496
 30
0.0
  0
SPLINE
  5
53
330
1F
100
AcDbEntity
  8
VRSTVA_1
 62
   250
100
AcDbSpline
210
0.0
220
0.0
230
1.0
 70
    11
 71
     3
 72
    44
 73
    40
 74
     0
 42
0.0000000001
 43
0.0000000001
 40
0.0
 40
0.0
 40
0.0
 40
0.0
 40
0.0909090909090909
 40
0.0909090909090909
 40
0.0909090909090909
 40
0.0909090909090909
 40
0.1818181818181818
 40
0.1818181818181818
 40
0.1818181818181818
 40
0.1818181818181818
 40
0.2727272727272727
 40
0.2727272727272727
 40
0.2727272727272727
 40
0.2727272727272727
 40
0.3636363636363636
 40
0.3636363636363636
 40
0.3636363636363636
 40
0.3636363636363636
 40
0.4545454545454545
 40
0.4545454545454545
 40
0.4545454545454545
 40
0.4545454545454545
 40
0.5454545454545454
 40
0.5454545454545454
 40
0.5454545454545454
 40
0.5454545454545454
 40
0.6363636363636364
 40
0.6363636363636364
 40
0.6363636363636364
 40
0.6363636363636364
 40
0.7272727272727273
 40
0.7272727272727273
 40
0.7272727272727273
 40
0.7272727272727273
 40
0.8181818181818182
 40
0.8181818181818182
 40
0.8181818181818182
 40
0.8181818181818182
 40
1.0
 40
1.0
 40
1.0
 40
1.0
 10
5.7925
 20
17.073
 30
0.0
 10
5.6909
 20
17.0312
 30
0.0
 10
5.539
 20
16.9962
 30
0.0
 10
5.3369
 20
16.9671
 30
0.0
 10
5.3369
 20
16.9671
 30
0.0
 10
5.222
 20
16.9507
 30
0.0
 10
5.1405
 20
16.9322
 30
0.0
 10
5.0934
 20
16.9116
 30
0.0
 10
5.0934
 20
16.9116
 30
0.0
 10
5.0458
 20
16.8909
 30
0.0
 10
5.0088
 20
16.8608
 30
0.0
 10
4.9834
 20
16.8205
 30
0.0
 10
4.9834
 20
16.8205
 30
0.0
 10
4.9575
 20
16.7809
 30
0.0
 10
4.9442
 20
16.7369
 30
0.0
 10
4.9442
 20
16.6883
 30
0.0
 10
4.9442
 20
16.6883
 30
0.0
 10
4.9442
 20
16.6136
 30
0.0
 10
4.9728
 20
16.5517
 30
0.0
 10
5.0289
 20
16.502
 30
0.0
 10
5.0289
 20
16.502
 30
0.0
 10
5.085
 20
16.4528
 30
0.0
 10
5.1675
 20
16.4279
 30
0.0
 10
5.276
 20
16.4279
 30
0.0
 10
5.276
 20
16.4279
 30
0.0
 10
5.3834
 20
16.4279
 30
0.0
 10
5.4792
 20
16.4512
 30
0.0
 10
5.5628
 20
16.4983
 30
0.0
 10
5.5628
 20
16.4983
 30
0.0
 10
5.6464
 20
16.5454
 30
0.0
 10
5.7083
 20
16.6099
 30
0.0
 10
5.7475
 20
16.6914
 30
0.0
 10
5.7475
 20
16.6914
 30
0.0
 10
5.7777
 20
16.7544
 30
0.0
 10
5.7925
 20
16.8475
 30
0.0
 10
5.7925
 20
16.9703
 30
0.0
 10
5.7925
 20
16.9703
 30
0.0
 10
5.7925
 20
16.9703
 30
0.0
 10
5.7925
 20
17.073
 30
0.0
 10
5.7925
 20
17.073
 30
0.0
  0
SPLINE
  5
54
330
1F
100
AcDbEntity
  8
VRSTVA_1
 62
   250
100
AcDbSpline
210
0.0
220
0.0
230
1.0
 70
    11
 71
     3
 72
    64
 73
    60
 74
     0
 42
0.0000000001
 43
0.0000000001
 40
0.0
 40
0.0
 40
0.0
 40
0.0
 40
0.0625
 40
0.0625
 40
0.0625
 40
0.0625
 40
0.125
 40
0.125
 40
0.125
 40
0.125
 40
0.1875
 40
0.1875
 40
0.1875
 40
0.1875
 40
0.25
 40
0.25
 40
0.25
 40
0.25
 40
0.3125
 40
0.3125
 40
0.3125
 40
0.3125
 40
0.375
 40
0.375
 40
0.375
 40
0.375
 40
0.4375
 40
0.4375
 40
0.4375
 40
0.4375
 40
0.5
 40
0.5
 40
0.5
 40
0.5
 40
0.5625
 40
0.5625
 40
0.5625
 40
0.5625
 40
0.625
 40
0.625
 40
0.625
 40
0.625
 40
0.6875
 40
0.6875
 40
0.6875
 40
0.6875
 40
0.75
 40
0.75
 40
0.75
 40
0.75
 40
0.8125
 40
0.8125
 40
0.8125
 40
0.8125
 40
0.875
 40
0.875
 40
0.875
 40
0.875
 40
1.0
 40
1.0
 40
1.0
 40
1.0
 10
6.3211
 20
16.2464
 30
0.0
 10
6.3211
 20
16.2464
 30
0.0
 10
6.9227
 20
17.1021
 30
0.0
 10
6.9227
 20
17.1021
 30
0.0
 10
6.9227
 20
17.1021
 30
0.0
 10
6.9227
 20
17.1021
 30
0.0
 10
6.3661
 20
17.8926
 30
0.0
 10
6.3661
 20
17.8926
 30
0.0
 10
6.3661
 20
17.8926
 30
0.0
 10
6.3661
 20
17.8926
 30
0.0
 10
6.7148
 20
17.8926
 30
0.0
 10
6.7148
 20
17.8926
 30
0.0
 10
6.7148
 20
17.8926
 30
0.0
 10
6.7148
 20
17.8926
 30
0.0
 10
6.9677
 20
17.5069
 30
0.0
 10
6.9677
 20
17.5069
 30
0.0
 10
6.9677
 20
17.5069
 30
0.0
 10
7.0148
 20
17.4333
 30
0.0
 10
7.0535
 20
17.3719
 30
0.0
 10
7.082
 20
17.3222
 30
0.0
 10
7.082
 20
17.3222
 30
0.0
 10
7.1275
 20
17.3905
 30
0.0
 10
7.1693
 20
17.4508
 30
0.0
 10
7.208
 20
17.5037
 30
0.0
 10
7.208
 20
17.5037
 30
0.0
 10
7.208
 20
17.5037
 30
0.0
 10
7.4853
 20
17.8926
 30
0.0
 10
7.4853
 20
17.8926
 30
0.0
 10
7.4853
 20
17.8926
 30
0.0
 10
7.4853
 20
17.8926
 30
0.0
 10
7.8186
 20
17.8926
 30
0.0
 10
7.8186
 20
17.8926
 30
0.0
 10
7.8186
 20
17.8926
 30
0.0
 10
7.8186
 20
17.8926
 30
0.0
 10
7.2498
 20
17.1174
 30
0.0
 10
7.2498
 20
17.1174
 30
0.0
 10
7.2498
 20
17.1174
 30
0.0
 10
7.2498
 20
17.1174
 30
0.0
 10
7.862
 20
16.2464
 30
0.0
 10
7.862
 20
16.2464
 30
0.0
 10
7.862
 20
16.2464
 30
0.0
 10
7.862
 20
16.2464
 30
0.0
 10
7.5196
 20
16.2464
 30
0.0
 10
7.5196
 20
16.2464
 30
0.0
 10
7.5196
 20
16.2464
 30
0.0
 10
7.5196
 20
16.2464
 30
0.0
 10
7.1815
 20
16.7581
 30
0.0
 10
7.1815
 20
16.7581
 30
0.0
 10
7.1815
 20
16.7581
 30
0.0
 10
7.1815
 20
16.7581
 30
0.0
 10
7.0916
 20
16.8962
 30
0.0
 10
7.0916
 20
16.8962
 30
0.0
 10
7.0916
 20
16.8962
 30
0.0
 10
7.0916
 20
16.8962
 30
0.0
 10
6.6592
 20
16.2464
 30
0.0
 10
6.6592
 20
16.2464
 30
0.0
 10
6.6592
 20
16.2464
 30
0.0
 10
6.6592
 20
16.2464
 30
0.0
 10
6.3211
 20
16.2464
 30
0.0
 10
6.3211
 20
16.2464
 30
0.0
  0
SPLINE
  5
55
330
1F
100
AcDbEntity
  8
VRSTVA_1
 62
   250
100
AcDbSpline
210
0.0
220
0.0
230
1.0
 70
    11
 71
     3
 72
    92
 73
    88
 74
     0
 42
0.0000000001
 43
0.0000000001
 40
0.0
 40
0.0
 40
0.0
 40
0.0
 40
0.0434782608695652
 40
0.0434782608695652
 40
0.0434782608695652
 40
0.0434782608695652
 40
0.0869565217391304
 40
0.0869565217391304
 40
0.0869565217391304
 40
0.0869565217391304
 40
0.1304347826086956
 40
0.1304347826086956
 40
0.1304347826086956
 40
0.1304347826086956
 40
0.1739130434782609
 40
0.1739130434782609
 40
0.1739130434782609
 40
0.1739130434782609
 40
0.2173913043478261
 40
0.2173913043478261
 40
0.2173913043478261
 40
0.2173913043478261
 40
0.2608695652173913
 40
0.2608695652173913
 40
0.2608695652173913
 40
0.2608695652173913
 40
0.3043478260869565
 40
0.3043478260869565
 40
0.3043478260869565
 40
0.3043478260869565
 40
0.3478260869565217
 40
0.3478260869565217
 40
0.3478260869565217
 40
0.3478260869565217
 40
0.391304347826087
 40
0.391304347826087
 40
0.391304347826087
 40
0.391304347826087
 40
0.4347826086956522
 40
0.4347826086956522
 40
0.4347826086956522
 40
0.4347826086956522
 40
0.4782608695652174
 40
0.4782608695652174
 40
0.4782608695652174
 40
0.4782608695652174
 40
0.5217391304347826
 40
0.5217391304347826
 40
0.5217391304347826
 40
0.5217391304347826
 40
0.5652173913043478
 40
0.5652173913043478
 40
0.5652173913043478
 40
0.5652173913043478
 40
0.6086956521739131
 40
0.6086956521739131
 40
0.6086956521739131
 40
0.6086956521739131
 40
0.6521739130434783
 40
0.6521739130434783
 40
0.6521739130434783
 40
0.6521739130434783
 40
0.6956521739130435
 40
0.6956521739130435
 40
0.6956521739130435
 40
0.6956521739130435
 40
0.7391304347826086
 40
0.7391304347826086
 40
0.7391304347826086
 40
0.7391304347826086
 40
0.782608695652174
 40
0.782608695652174
 40
0.782608695652174
 40
0.782608695652174
 40
0.8260869565217391
 40
0.8260869565217391
 40
0.8260869565217391
 40
0.8260869565217391
 40
0.8695652173913043
 40
0.8695652173913043
 40
0.8695652173913043
 40
0.8695652173913043
 40
0.9130434782608695
 40
0.9130434782608695
 40
0.9130434782608695
 40
0.9130434782608695
 40
1.0
 40
1.0
 40
1.0
 40
1.0
 10
10.366
 20
16.5147
 30
0.0
 10
10.366
 20
16.5147
 30
0.0
 10
10.366
 20
16.2464
 30
0.0
 10
10.366
 20
16.2464
 30
0.0
 10
10.366
 20
16.2464
 30
0.0
 10
10.366
 20
16.2464
 30
0.0
 10
8.8637
 20
16.2464
 30
0.0
 10
8.8637
 20
16.2464
 30
0.0
 10
8.8637
 20
16.2464
 30
0.0
 10
8.8616
 20
16.3136
 30
0.0
 10
8.8722
 20
16.3782
 30
0.0
 10
8.896
 20
16.4401
 30
0.0
 10
8.896
 20
16.4401
 30
0.0
 10
8.9341
 20
16.5427
 30
0.0
 10
8.9955
 20
16.6433
 30
0.0
 10
9.0796
 20
16.7428
 30
0.0
 10
9.0796
 20
16.7428
 30
0.0
 10
9.1643
 20
16.8417
 30
0.0
 10
9.286
 20
16.9565
 30
0.0
 10
9.4447
 20
17.0867
 30
0.0
 10
9.4447
 20
17.0867
 30
0.0
 10
9.6919
 20
17.2894
 30
0.0
 10
9.8591
 20
17.4497
 30
0.0
 10
9.9459
 20
17.5683
 30
0.0
 10
9.9459
 20
17.5683
 30
0.0
 10
10.0326
 20
17.6863
 30
0.0
 10
10.076
 20
17.7984
 30
0.0
 10
10.076
 20
17.9038
 30
0.0
 10
10.076
 20
17.9038
 30
0.0
 10
10.076
 20
18.0143
 30
0.0
 10
10.0363
 20
18.1075
 30
0.0
 10
9.9575
 20
18.1837
 30
0.0
 10
9.9575
 20
18.1837
 30
0.0
 10
9.8781
 20
18.2594
 30
0.0
 10
9.7749
 20
18.2975
 30
0.0
 10
9.6479
 20
18.2975
 30
0.0
 10
9.6479
 20
18.2975
 30
0.0
 10
9.5135
 20
18.2975
 30
0.0
 10
9.4061
 20
18.2572
 30
0.0
 10
9.3257
 20
18.1763
 30
0.0
 10
9.3257
 20
18.1763
 30
0.0
 10
9.2447
 20
18.0958
 30
0.0
 10
9.204
 20
17.9842
 30
0.0
 10
9.2029
 20
17.8418
 30
0.0
 10
9.2029
 20
17.8418
 30
0.0
 10
9.2029
 20
17.8418
 30
0.0
 10
8.9161
 20
17.8709
 30
0.0
 10
8.9161
 20
17.8709
 30
0.0
 10
8.9161
 20
17.8709
 30
0.0
 10
8.9357
 20
18.0853
 30
0.0
 10
9.0098
 20
18.2482
 30
0.0
 10
9.1378
 20
18.3604
 30
0.0
 10
9.1378
 20
18.3604
 30
0.0
 10
9.2659
 20
18.4726
 30
0.0
 10
9.4384
 20
18.5287
 30
0.0
 10
9.6543
 20
18.5287
 30
0.0
 10
9.6543
 20
18.5287
 30
0.0
 10
9.8723
 20
18.5287
 30
0.0
 10
10.0448
 20
18.4678
 30
0.0
 10
10.1718
 20
18.3472
 30
0.0
 10
10.1718
 20
18.3472
 30
0.0
 10
10.2993
 20
18.226
 30
0.0
 10
10.3628
 20
18.0763
 30
0.0
 10
10.3628
 20
17.8974
 30
0.0
 10
10.3628
 20
17.8974
 30
0.0
 10
10.3628
 20
17.8064
 30
0.0
 10
10.3443
 20
17.717
 30
0.0
 10
10.3067
 20
17.6291
 30
0.0
 10
10.3067
 20
17.6291
 30
0.0
 10
10.2697
 20
17.5413
 30
0.0
 10
10.2078
 20
17.4487
 30
0.0
 10
10.1215
 20
17.3518
 30
0.0
 10
10.1215
 20
17.3518
 30
0.0
 10
10.0353
 20
17.2545
 30
0.0
 10
9.8919
 20
17.1211
 30
0.0
 10
9.6913
 20
16.9518
 30
0.0
 10
9.6913
 20
16.9518
 30
0.0
 10
9.5241
 20
16.811
 30
0.0
 10
9.4167
 20
16.7158
 30
0.0
 10
9.3691
 20
16.6655
 30
0.0
 10
9.3691
 20
16.6655
 30
0.0
 10
9.3214
 20
16.6158
 30
0.0
 10
9.2823
 20
16.5655
 30
0.0
 10
9.2511
 20
16.5147
 30
0.0
 10
9.2511
 20
16.5147
 30
0.0
 10
9.2511
 20
16.5147
 30
0.0
 10
10.366
 20
16.5147
 30
0.0
 10
10.366
 20
16.5147
 30
0.0
  0
SPLINE
  5
56
330
1F
100
AcDbEntity
  8
VRSTVA_1
 62
   250
100
AcDbSpline
210
0.0
220
0.0
230
1.0
 70
    11
 71
     3
 72
    92
 73
    88
 74
     0
 42
0.0000000001
 43
0.0000000001
 40
0.0
 40
0.0
 40
0.0
 40
0.0
 40
0.0434782608695652
 40
0.0434782608695652
 40
0.0434782608695652
 40
0.0434782608695652
 40
0.0869565217391304
 40
0.0869565217391304
 40
0.0869565217391304
 40
0.0869565217391304
 40
0.1304347826086956
 40
0.1304347826086956
 40
0.1304347826086956
 40
0.1304347826086956
 40
0.1739130434782609
 40
0.1739130434782609
 40
0.1739130434782609
 40
0.1739130434782609
 40
0.2173913043478261
 40
0.2173913043478261
 40
0.2173913043478261
 40
0.2173913043478261
 40
0.2608695652173913
 40
0.2608695652173913
 40
0.2608695652173913
 40
0.2608695652173913
 40
0.3043478260869565
 40
0.3043478260869565
 40
0.3043478260869565
 40
0.3043478260869565
 40
0.3478260869565217
 40
0.3478260869565217
 40
0.3478260869565217
 40
0.3478260869565217
 40
0.391304347826087
 40
0.391304347826087
 40
0.391304347826087
 40
0.391304347826087
 40
0.4347826086956522
 40
0.4347826086956522
 40
0.4347826086956522
 40
0.4347826086956522
 40
0.4782608695652174
 40
0.4782608695652174
 40
0.4782608695652174
 40
0.4782608695652174
 40
0.5217391304347826
 40
0.5217391304347826
 40
0.5217391304347826
 40
0.5217391304347826
 40
0.5652173913043478
 40
0.5652173913043478
 40
0.5652173913043478
 40
0.5652173913043478
 40
0.6086956521739131
 40
0.6086956521739131
 40
0.6086956521739131
 40
0.6086956521739131
 40
0.6521739130434783
 40
0.6521739130434783
 40
0.6521739130434783
 40
0.6521739130434783
 40
0.6956521739130435
 40
0.6956521739130435
 40
0.6956521739130435
 40
0.6956521739130435
 40
0.7391304347826086
 40
0.7391304347826086
 40
0.7391304347826086
 40
0.7391304347826086
 40
0.782608695652174
 40
0.782608695652174
 40
0.782608695652174
 40
0.782608695652174
 40
0.8260869565217391
 40
0.8260869565217391
 40
0.8260869565217391
 40
0.8260869565217391
 40
0.8695652173913043
 40
0.8695652173913043
 40
0.8695652173913043
 40
0.8695652173913043
 40
0.9130434782608695
 40
0.9130434782608695
 40
0.9130434782608695
 40
0.9130434782608695
 40
1.0
 40
1.0
 40
1.0
 40
1.0
 10
10.665
 20
16.8417
 30
0.0
 10
10.665
 20
16.8417
 30
0.0
 10
10.9581
 20
16.8666
 30
0.0
 10
10.9581
 20
16.8666
 30
0.0
 10
10.9581
 20
16.8666
 30
0.0
 10
10.9798
 20
16.7237
 30
0.0
 10
11.0301
 20
16.6168
 30
0.0
 10
11.1089
 20
16.5449
 30
0.0
 10
11.1089
 20
16.5449
 30
0.0
 10
11.1883
 20
16.4729
 30
0.0
 10
11.2836
 20
16.4369
 30
0.0
 10
11.3952
 20
16.4369
 30
0.0
 10
11.3952
 20
16.4369
 30
0.0
 10
11.5296
 20
16.4369
 30
0.0
 10
11.6434
 20
16.4877
 30
0.0
 10
11.736
 20
16.5888
 30
0.0
 10
11.736
 20
16.5888
 30
0.0
 10
11.8291
 20
16.6904
 30
0.0
 10
11.8757
 20
16.8248
 30
0.0
 10
11.8757
 20
16.992
 30
0.0
 10
11.8757
 20
16.992
 30
0.0
 10
11.8757
 20
17.1513
 30
0.0
 10
11.8312
 20
17.2767
 30
0.0
 10
11.7418
 20
17.3688
 30
0.0
 10
11.7418
 20
17.3688
 30
0.0
 10
11.6524
 20
17.4608
 30
0.0
 10
11.5354
 20
17.5069
 30
0.0
 10
11.3905
 20
17.5069
 30
0.0
 10
11.3905
 20
17.5069
 30
0.0
 10
11.3005
 20
17.5069
 30
0.0
 10
11.2195
 20
17.4862
 30
0.0
 10
11.147
 20
17.4455
 30
0.0
 10
11.147
 20
17.4455
 30
0.0
 10
11.0745
 20
17.4047
 30
0.0
 10
11.0179
 20
17.3518
 30
0.0
 10
10.9766
 20
17.2867
 30
0.0
 10
10.9766
 20
17.2867
 30
0.0
 10
10.9766
 20
17.2867
 30
0.0
 10
10.7147
 20
17.3206
 30
0.0
 10
10.7147
 20
17.3206
 30
0.0
 10
10.7147
 20
17.3206
 30
0.0
 10
10.7147
 20
17.3206
 30
0.0
 10
10.9348
 20
18.488
 30
0.0
 10
10.9348
 20
18.488
 30
0.0
 10
10.9348
 20
18.488
 30
0.0
 10
10.9348
 20
18.488
 30
0.0
 10
12.0651
 20
18.488
 30
0.0
 10
12.0651
 20
18.488
 30
0.0
 10
12.0651
 20
18.488
 30
0.0
 10
12.0651
 20
18.488
 30
0.0
 10
12.0651
 20
18.2213
 30
0.0
 10
12.0651
 20
18.2213
 30
0.0
 10
12.0651
 20
18.2213
 30
0.0
 10
12.0651
 20
18.2213
 30
0.0
 10
11.1581
 20
18.2213
 30
0.0
 10
11.1581
 20
18.2213
 30
0.0
 10
11.1581
 20
18.2213
 30
0.0
 10
11.1581
 20
18.2213
 30
0.0
 10
11.0354
 20
17.6106
 30
0.0
 10
11.0354
 20
17.6106
 30
0.0
 10
11.0354
 20
17.6106
 30
0.0
 10
11.1719
 20
17.7058
 30
0.0
 10
11.3153
 20
17.7535
 30
0.0
 10
11.4651
 20
17.7535
 30
0.0
 10
11.4651
 20
17.7535
 30
0.0
 10
11.6635
 20
17.7535
 30
0.0
 10
11.8307
 20
17.6847
 30
0.0
 10
11.9672
 20
17.5471
 30
0.0
 10
11.9672
 20
17.5471
 30
0.0
 10
12.1038
 20
17.4095
 30
0.0
 10
12.172
 20
17.2328
 30
0.0
 10
12.172
 20
17.0169
 30
0.0
 10
12.172
 20
17.0169
 30
0.0
 10
12.172
 20
16.811
 30
0.0
 10
12.1117
 20
16.6332
 30
0.0
 10
11.9921
 20
16.4835
 30
0.0
 10
11.9921
 20
16.4835
 30
0.0
 10
11.8461
 20
16.2998
 30
0.0
 10
11.6471
 20
16.2078
 30
0.0
 10
11.3952
 20
16.2078
 30
0.0
 10
11.3952
 20
16.2078
 30
0.0
 10
11.1883
 20
16.2078
 30
0.0
 10
11.0195
 20
16.2655
 30
0.0
 10
10.8888
 20
16.3813
 30
0.0
 10
10.8888
 20
16.3813
 30
0.0
 10
10.7581
 20
16.4972
 30
0.0
 10
10.6835
 20
16.6507
 30
0.0
 10
10.665
 20
16.8417
 30
0.0
  0
SPLINE
  5
57
330
1F
100
AcDbEntity
  8
VRSTVA_1
 62
   250
100
AcDbSpline
210
0.0
220
0.0
230
1.0
 70
    11
 71
     3
 72
    52
 73
    48
 74
     0
 42
0.0000000001
 43
0.0000000001
 40
0.0
 40
0.0
 40
0.0
 40
0.0
 40
0.0769230769230769
 40
0.0769230769230769
 40
0.0769230769230769
 40
0.0769230769230769
 40
0.1538461538461539
 40
0.1538461538461539
 40
0.1538461538461539
 40
0.1538461538461539
 40
0.2307692307692308
 40
0.2307692307692308
 40
0.2307692307692308
 40
0.2307692307692308
 40
0.3076923076923077
 40
0.3076923076923077
 40
0.3076923076923077
 40
0.3076923076923077
 40
0.3846153846153846
 40
0.3846153846153846
 40
0.3846153846153846
 40
0.3846153846153846
 40
0.4615384615384616
 40
0.4615384615384616
 40
0.4615384615384616
 40
0.4615384615384616
 40
0.5384615384615384
 40
0.5384615384615384
 40
0.5384615384615384
 40
0.5384615384615384
 40
0.6153846153846154
 40
0.6153846153846154
 40
0.6153846153846154
 40
0.6153846153846154
 40
0.6923076923076923
 40
0.6923076923076923
 40
0.6923076923076923
 40
0.6923076923076923
 40
0.7692307692307693
 40
0.7692307692307693
 40
0.7692307692307693
 40
0.7692307692307693
 40
0.8461538461538461
 40
0.8461538461538461
 40
0.8461538461538461
 40
0.8461538461538461
 40
1.0
 40
1.0
 40
1.0
 40
1.0
 10
12.4308
 20
17.3672
 30
0.0
 10
12.4308
 20
17.636
 30
0.0
 10
12.4583
 20
17.8524
 30
0.0
 10
12.5138
 20
18.0159
 30
0.0
 10
12.5138
 20
18.0159
 30
0.0
 10
12.5689
 20
18.18
 30
0.0
 10
12.6514
 20
18.3064
 30
0.0
 10
12.7604
 20
18.3953
 30
0.0
 10
12.7604
 20
18.3953
 30
0.0
 10
12.8694
 20
18.4842
 30
0.0
 10
13.0065
 20
18.5287
 30
0.0
 10
13.1716
 20
18.5287
 30
0.0
 10
13.1716
 20
18.5287
 30
0.0
 10
13.2938
 20
18.5287
 30
0.0
 10
13.4007
 20
18.5038
 30
0.0
 10
13.4928
 20
18.4546
 30
0.0
 10
13.4928
 20
18.4546
 30
0.0
 10
13.5849
 20
18.4059
 30
0.0
 10
13.6605
 20
18.335
 30
0.0
 10
13.7209
 20
18.2424
 30
0.0
 10
13.7209
 20
18.2424
 30
0.0
 10
13.7807
 20
18.1498
 30
0.0
 10
13.8278
 20
18.0371
 30
0.0
 10
13.8616
 20
17.9043
 30
0.0
 10
13.8616
 20
17.9043
 30
0.0
 10
13.896
 20
17.7715
 30
0.0
 10
13.913
 20
17.5926
 30
0.0
 10
13.913
 20
17.3672
 30
0.0
 10
13.913
 20
17.3672
 30
0.0
 10
13.913
 20
17.1005
 30
0.0
 10
13.8854
 20
16.8856
 30
0.0
 10
13.8309
 20
16.7216
 30
0.0
 10
13.8309
 20
16.7216
 30
0.0
 10
13.7759
 20
16.5576
 30
0.0
 10
13.6939
 20
16.4311
 30
0.0
 10
13.5849
 20
16.3417
 30
0.0
 10
13.5849
 20
16.3417
 30
0.0
 10
13.4759
 20
16.2522
 30
0.0
 10
13.3383
 20
16.2078
 30
0.0
 10
13.1716
 20
16.2078
 30
0.0
 10
13.1716
 20
16.2078
 30
0.0
 10
12.9525
 20
16.2078
 30
0.0
 10
12.7805
 20
16.2861
 30
0.0
 10
12.6557
 20
16.4433
 30
0.0
 10
12.6557
 20
16.4433
 30
0.0
 10
12.5059
 20
16.6322
 30
0.0
 10
12.4308
 20
16.9407
 30
0.0
 10
12.4308
 20
17.3672
 30
0.0
  0
SPLINE
  5
58
330
1F
100
AcDbEntity
  8
VRSTVA_1
 62
   250
100
AcDbSpline
210
0.0
220
0.0
230
1.0
 70
    11
 71
     3
 72
    36
 73
    32
 74
     0
 42
0.0000000001
 43
0.0000000001
 40
0.0
 40
0.0
 40
0.0
 40
0.0
 40
0.1111111111111111
 40
0.1111111111111111
 40
0.1111111111111111
 40
0.1111111111111111
 40
0.2222222222222222
 40
0.2222222222222222
 40
0.2222222222222222
 40
0.2222222222222222
 40
0.3333333333333333
 40
0.3333333333333333
 40
0.3333333333333333
 40
0.3333333333333333
 40
0.4444444444444444
 40
0.4444444444444444
 40
0.4444444444444444
 40
0.4444444444444444
 40
0.5555555555555556
 40
0.5555555555555556
 40
0.5555555555555556
 40
0.5555555555555556
 40
0.6666666666666666
 40
0.6666666666666666
 40
0.6666666666666666
 40
0.6666666666666666
 40
0.7777777777777778
 40
0.7777777777777778
 40
0.7777777777777778
 40
0.7777777777777778
 40
1.0
 40
1.0
 40
1.0
 40
1.0
 10
12.7176
 20
17.3672
 30
0.0
 10
12.7176
 20
16.9941
 30
0.0
 10
12.7615
 20
16.7459
 30
0.0
 10
12.8488
 20
16.6221
 30
0.0
 10
12.8488
 20
16.6221
 30
0.0
 10
12.9361
 20
16.4988
 30
0.0
 10
13.0435
 20
16.4369
 30
0.0
 10
13.1716
 20
16.4369
 30
0.0
 10
13.1716
 20
16.4369
 30
0.0
 10
13.3002
 20
16.4369
 30
0.0
 10
13.4076
 20
16.4993
 30
0.0
 10
13.4949
 20
16.6232
 30
0.0
 10
13.4949
 20
16.6232
 30
0.0
 10
13.5822
 20
16.747
 30
0.0
 10
13.6262
 20
16.9952
 30
0.0
 10
13.6262
 20
17.3672
 30
0.0
 10
13.6262
 20
17.3672
 30
0.0
 10
13.6262
 20
17.7413
 30
0.0
 10
13.5822
 20
17.99
 30
0.0
 10
13.4949
 20
18.1128
 30
0.0
 10
13.4949
 20
18.1128
 30
0.0
 10
13.4076
 20
18.2361
 30
0.0
 10
13.2991
 20
18.2975
 30
0.0
 10
13.169
 20
18.2975
 30
0.0
 10
13.169
 20
18.2975
 30
0.0
 10
13.0404
 20
18.2975
 30
0.0
 10
12.9382
 20
18.2429
 30
0.0
 10
12.8615
 20
18.1345
 30
0.0
 10
12.8615
 20
18.1345
 30
0.0
 10
12.7657
 20
17.9964
 30
0.0
 10
12.7176
 20
17.7402
 30
0.0
 10
12.7176
 20
17.3672
 30
0.0
  0
SPLINE
  5
59
330
1F
100
AcDbEntity
  8
VRSTVA_1
 62
   250
100
AcDbSpline
210
0.0
220
0.0
230
1.0
 70
    11
 71
     3
 72
    80
 73
    76
 74
     0
 42
0.0000000001
 43
0.0000000001
 40
0.0
 40
0.0
 40
0.0
 40
0.0
 40
0.05
 40
0.05
 40
0.05
 40
0.05
 40
0.1
 40
0.1
 40
0.1
 40
0.1
 40
0.15
 40
0.15
 40
0.15
 40
0.15
 40
0.2
 40
0.2
 40
0.2
 40
0.2
 40
0.25
 40
0.25
 40
0.25
 40
0.25
 40
0.3
 40
0.3
 40
0.3
 40
0.3
 40
0.35
 40
0.35
 40
0.35
 40
0.35
 40
0.4
 40
0.4
 40
0.4
 40
0.4
 40
0.45
 40
0.45
 40
0.45
 40
0.45
 40
0.5
 40
0.5
 40
0.5
 40
0.5
 40
0.55
 40
0.55
 40
0.55
 40
0.55
 40
0.6
 40
0.6
 40
0.6
 40
0.6
 40
0.65
 40
0.65
 40
0.65
 40
0.65
 40
0.7
 40
0.7
 40
0.7
 40
0.7
 40
0.75
 40
0.75
 40
0.75
 40
0.75
 40
0.8
 40
0.8
 40
0.8
 40
0.8
 40
0.85
 40
0.85
 40
0.85
 40
0.85
 40
0.9
 40
0.9
 40
0.9
 40
0.9
 40
1.0
 40
1.0
 40
1.0
 40
1.0
 10
-37.8798
 20
6.3148
 30
0.0
 10
-37.8798
 20
6.3148
 30
0.0
 10
-37.8584
 20
6.0374
 30
0.0
 10
-37.8584
 20
6.0374
 30
0.0
 10
-37.8584
 20
6.0374
 30
0.0
 10
-37.9679
 20
6.0127
 30
0.0
 10
-38.0478
 20
5.9778
 30
0.0
 10
-38.0971
 20
5.9324
 30
0.0
 10
-38.0971
 20
5.9324
 30
0.0
 10
-38.1771
 20
5.8568
 30
0.0
 10
-38.2168
 20
5.7637
 30
0.0
 10
-38.2169
 20
5.6531
 30
0.0
 10
-38.2169
 20
5.6531
 30
0.0
 10
-38.217
 20
5.5642
 30
0.0
 10
-38.1923
 20
5.4864
 30
0.0
 10
-38.1426
 20
5.4191
 30
0.0
 10
-38.1426
 20
5.4191
 30
0.0
 10
-38.0787
 20
5.3312
 30
0.0
 10
-37.9851
 20
5.2618
 30
0.0
 10
-37.8624
 20
5.2109
 30
0.0
 10
-37.8624
 20
5.2109
 30
0.0
 10
-37.7397
 20
5.1605
 30
0.0
 10
-37.5645
 20
5.1338
 30
0.0
 10
-37.337
 20
5.1315
 30
0.0
 10
-37.337
 20
5.1315
 30
0.0
 10
-37.439
 20
5.1988
 30
0.0
 10
-37.5151
 20
5.2809
 30
0.0
 10
-37.5648
 20
5.3783
 30
0.0
 10
-37.5648
 20
5.3783
 30
0.0
 10
-37.6139
 20
5.4752
 30
0.0
 10
-37.6387
 20
5.5773
 30
0.0
 10
-37.6386
 20
5.6837
 30
0.0
 10
-37.6386
 20
5.6837
 30
0.0
 10
-37.6384
 20
5.87
 30
0.0
 10
-37.57
 20
6.0281
 30
0.0
 10
-37.4327
 20
6.1587
 30
0.0
 10
-37.4327
 20
6.1587
 30
0.0
 10
-37.2956
 20
6.2893
 30
0.0
 10
-37.1187
 20
6.3547
 30
0.0
 10
-36.9018
 20
6.3545
 30
0.0
 10
-36.9018
 20
6.3545
 30
0.0
 10
-36.7589
 20
6.3543
 30
0.0
 10
-36.6267
 20
6.323
 30
0.0
 10
-36.504
 20
6.2615
 30
0.0
 10
-36.504
 20
6.2615
 30
0.0
 10
-36.3818
 20
6.1999
 30
0.0
 10
-36.2877
 20
6.1152
 30
0.0
 10
-36.2227
 20
6.0077
 30
0.0
 10
-36.2227
 20
6.0077
 30
0.0
 10
-36.1577
 20
5.9002
 30
0.0
 10
-36.1256
 20
5.7785
 30
0.0
 10
-36.1258
 20
5.642
 30
0.0
 10
-36.1258
 20
5.642
 30
0.0
 10
-36.126
 20
5.4091
 30
0.0
 10
-36.2114
 20
5.2197
 30
0.0
 10
-36.3829
 20
5.0733
 30
0.0
 10
-36.3829
 20
5.0733
 30
0.0
 10
-36.554
 20
4.9264
 30
0.0
 10
-36.8362
 20
4.8537
 30
0.0
 10
-37.2288
 20
4.8541
 30
0.0
 10
-37.2288
 20
4.8541
 30
0.0
 10
-37.668
 20
4.8545
 30
0.0
 10
-37.987
 20
4.9359
 30
0.0
 10
-38.1863
 20
5.0985
 30
0.0
 10
-38.1863
 20
5.0985
 30
0.0
 10
-38.3598
 20
5.24
 30
0.0
 10
-38.4469
 20
5.4306
 30
0.0
 10
-38.4466
 20
5.6708
 30
0.0
 10
-38.4466
 20
5.6708
 30
0.0
 10
-38.4464
 20
5.8492
 30
0.0
 10
-38.396
 20
5.9956
 30
0.0
 10
-38.2954
 20
6.1098
 30
0.0
 10
-38.2954
 20
6.1098
 30
0.0
 10
-38.1953
 20
6.224
 30
0.0
 10
-38.0565
 20
6.2922
 30
0.0
 10
-37.8798
 20
6.3148
 30
0.0
  0
SPLINE
  5
5A
330
1F
100
AcDbEntity
  8
VRSTVA_1
 62
   250
100
AcDbSpline
210
0.0
220
0.0
230
1.0
 70
    11
 71
     3
 72
    40
 73
    36
 74
     0
 42
0.0000000001
 43
0.0000000001
 40
0.0
 40
0.0
 40
0.0
 40
0.0
 40
0.1
 40
0.1
 40
0.1
 40
0.1
 40
0.2
 40
0.2
 40
0.2
 40
0.2
 40
0.3
 40
0.3
 40
0.3
 40
0.3
 40
0.4
 40
0.4
 40
0.4
 40
0.4
 40
0.5
 40
0.5
 40
0.5
 40
0.5
 40
0.6
 40
0.6
 40
0.6
 40
0.6
 40
0.7
 40
0.7
 40
0.7
 40
0.7
 40
0.8
 40
0.8
 40
0.8
 40
0.8
 40
1.0
 40
1.0
 40
1.0
 40
1.0
 10
-36.9014
 20
5.1745
 30
0.0
 10
-36.8051
 20
5.1744
 30
0.0
 10
-36.713
 20
5.1949
 30
0.0
 10
-36.6252
 20
5.2356
 30
0.0
 10
-36.6252
 20
5.2356
 30
0.0
 10
-36.5372
 20
5.2762
 30
0.0
 10
-36.4706
 20
5.3332
 30
0.0
 10
-36.4244
 20
5.4063
 30
0.0
 10
-36.4244
 20
5.4063
 30
0.0
 10
-36.3783
 20
5.4797
 30
0.0
 10
-36.355
 20
5.557
 30
0.0
 10
-36.3549
 20
5.6374
 30
0.0
 10
-36.3549
 20
5.6374
 30
0.0
 10
-36.3547
 20
5.7554
 30
0.0
 10
-36.4022
 20
5.8565
 30
0.0
 10
-36.4975
 20
5.9413
 30
0.0
 10
-36.4975
 20
5.9413
 30
0.0
 10
-36.5926
 20
6.026
 30
0.0
 10
-36.7216
 20
6.0686
 30
0.0
 10
-36.8846
 20
6.0687
 30
0.0
 10
-36.8846
 20
6.0687
 30
0.0
 10
-37.0418
 20
6.0689
 30
0.0
 10
-37.1657
 20
6.0272
 30
0.0
 10
-37.2563
 20
5.9436
 30
0.0
 10
-37.2563
 20
5.9436
 30
0.0
 10
-37.3468
 20
5.8601
 30
0.0
 10
-37.3919
 20
5.7549
 30
0.0
 10
-37.3921
 20
5.6279
 30
0.0
 10
-37.3921
 20
5.6279
 30
0.0
 10
-37.3922
 20
5.5015
 30
0.0
 10
-37.3473
 20
5.3945
 30
0.0
 10
-37.2569
 20
5.3065
 30
0.0
 10
-37.2569
 20
5.3065
 30
0.0
 10
-37.1665
 20
5.2186
 30
0.0
 10
-37.048
 20
5.1746
 30
0.0
 10
-36.9014
 20
5.1745
 30
0.0
  0
SPLINE
  5
5B
330
1F
100
AcDbEntity
  8
VRSTVA_1
 62
   250
100
AcDbSpline
210
0.0
220
0.0
230
1.0
 70
    11
 71
     3
 72
    52
 73
    48
 74
     0
 42
0.0000000001
 43
0.0000000001
 40
0.0
 40
0.0
 40
0.0
 40
0.0
 40
0.0769230769230769
 40
0.0769230769230769
 40
0.0769230769230769
 40
0.0769230769230769
 40
0.1538461538461539
 40
0.1538461538461539
 40
0.1538461538461539
 40
0.1538461538461539
 40
0.2307692307692308
 40
0.2307692307692308
 40
0.2307692307692308
 40
0.2307692307692308
 40
0.3076923076923077
 40
0.3076923076923077
 40
0.3076923076923077
 40
0.3076923076923077
 40
0.3846153846153846
 40
0.3846153846153846
 40
0.3846153846153846
 40
0.3846153846153846
 40
0.4615384615384616
 40
0.4615384615384616
 40
0.4615384615384616
 40
0.4615384615384616
 40
0.5384615384615384
 40
0.5384615384615384
 40
0.5384615384615384
 40
0.5384615384615384
 40
0.6153846153846154
 40
0.6153846153846154
 40
0.6153846153846154
 40
0.6153846153846154
 40
0.6923076923076923
 40
0.6923076923076923
 40
0.6923076923076923
 40
0.6923076923076923
 40
0.7692307692307693
 40
0.7692307692307693
 40
0.7692307692307693
 40
0.7692307692307693
 40
0.8461538461538461
 40
0.8461538461538461
 40
0.8461538461538461
 40
0.8461538461538461
 40
1.0
 40
1.0
 40
1.0
 40
1.0
 10
-37.2841
 20
6.6322
 30
0.0
 10
-37.5529
 20
6.6324
 30
0.0
 10
-37.7693
 20
6.6602
 30
0.0
 10
-37.9328
 20
6.7158
 30
0.0
 10
-37.9328
 20
6.7158
 30
0.0
 10
-38.0968
 20
6.7711
 30
0.0
 10
-38.2231
 20
6.8537
 30
0.0
 10
-38.3119
 20
6.9628
 30
0.0
 10
-38.3119
 20
6.9628
 30
0.0
 10
-38.4007
 20
7.0719
 30
0.0
 10
-38.445
 20
7.2091
 30
0.0
 10
-38.4449
 20
7.3742
 30
0.0
 10
-38.4449
 20
7.3742
 30
0.0
 10
-38.4447
 20
7.4964
 30
0.0
 10
-38.4197
 20
7.6032
 30
0.0
 10
-38.3704
 20
7.6953
 30
0.0
 10
-38.3704
 20
7.6953
 30
0.0
 10
-38.3216
 20
7.7873
 30
0.0
 10
-38.2507
 20
7.8629
 30
0.0
 10
-38.158
 20
7.9232
 30
0.0
 10
-38.158
 20
7.9232
 30
0.0
 10
-38.0653
 20
7.9829
 30
0.0
 10
-37.9526
 20
8.0298
 30
0.0
 10
-37.8198
 20
8.0635
 30
0.0
 10
-37.8198
 20
8.0635
 30
0.0
 10
-37.6869
 20
8.0978
 30
0.0
 10
-37.508
 20
8.1146
 30
0.0
 10
-37.2826
 20
8.1144
 30
0.0
 10
-37.2826
 20
8.1144
 30
0.0
 10
-37.0159
 20
8.1141
 30
0.0
 10
-36.801
 20
8.0863
 30
0.0
 10
-36.6371
 20
8.0316
 30
0.0
 10
-36.6371
 20
8.0316
 30
0.0
 10
-36.4732
 20
7.9764
 30
0.0
 10
-36.3467
 20
7.8943
 30
0.0
 10
-36.2575
 20
7.7852
 30
0.0
 10
-36.2575
 20
7.7852
 30
0.0
 10
-36.1681
 20
7.6761
 30
0.0
 10
-36.1238
 20
7.5385
 30
0.0
 10
-36.124
 20
7.3718
 30
0.0
 10
-36.124
 20
7.3718
 30
0.0
 10
-36.1242
 20
7.1527
 30
0.0
 10
-36.2027
 20
6.9807
 30
0.0
 10
-36.36
 20
6.8561
 30
0.0
 10
-36.36
 20
6.8561
 30
0.0
 10
-36.5491
 20
6.7065
 30
0.0
 10
-36.8576
 20
6.6317
 30
0.0
 10
-37.2841
 20
6.6322
 30
0.0
  0
SPLINE
  5
5C
330
1F
100
AcDbEntity
  8
VRSTVA_1
 62
   250
100
AcDbSpline
210
0.0
220
0.0
230
1.0
 70
    11
 71
     3
 72
    36
 73
    32
 74
     0
 42
0.0000000001
 43
0.0000000001
 40
0.0
 40
0.0
 40
0.0
 40
0.0
 40
0.1111111111111111
 40
0.1111111111111111
 40
0.1111111111111111
 40
0.1111111111111111
 40
0.2222222222222222
 40
0.2222222222222222
 40
0.2222222222222222
 40
0.2222222222222222
 40
0.3333333333333333
 40
0.3333333333333333
 40
0.3333333333333333
 40
0.3333333333333333
 40
0.4444444444444444
 40
0.4444444444444444
 40
0.4444444444444444
 40
0.4444444444444444
 40
0.5555555555555556
 40
0.5555555555555556
 40
0.5555555555555556
 40
0.5555555555555556
 40
0.6666666666666666
 40
0.6666666666666666
 40
0.6666666666666666
 40
0.6666666666666666
 40
0.7777777777777778
 40
0.7777777777777778
 40
0.7777777777777778
 40
0.7777777777777778
 40
1.0
 40
1.0
 40
1.0
 40
1.0
 10
-37.2838
 20
6.919
 30
0.0
 10
-36.9107
 20
6.9186
 30
0.0
 10
-36.6625
 20
6.9622
 30
0.0
 10
-36.5386
 20
7.0494
 30
0.0
 10
-36.5386
 20
7.0494
 30
0.0
 10
-36.4152
 20
7.1366
 30
0.0
 10
-36.3532
 20
7.2439
 30
0.0
 10
-36.3531
 20
7.372
 30
0.0
 10
-36.3531
 20
7.372
 30
0.0
 10
-36.3529
 20
7.5006
 30
0.0
 10
-36.4152
 20
7.6081
 30
0.0
 10
-36.539
 20
7.6955
 30
0.0
 10
-36.539
 20
7.6955
 30
0.0
 10
-36.6628
 20
7.7829
 30
0.0
 10
-36.9109
 20
7.8272
 30
0.0
 10
-37.2829
 20
7.8276
 30
0.0
 10
-37.2829
 20
7.8276
 30
0.0
 10
-37.657
 20
7.8279
 30
0.0
 10
-37.9058
 20
7.7842
 30
0.0
 10
-38.0286
 20
7.697
 30
0.0
 10
-38.0286
 20
7.697
 30
0.0
 10
-38.152
 20
7.6098
 30
0.0
 10
-38.2135
 20
7.5014
 30
0.0
 10
-38.2137
 20
7.3713
 30
0.0
 10
-38.2137
 20
7.3713
 30
0.0
 10
-38.2138
 20
7.2427
 30
0.0
 10
-38.1593
 20
7.1405
 30
0.0
 10
-38.051
 20
7.0636
 30
0.0
 10
-38.051
 20
7.0636
 30
0.0
 10
-37.913
 20
6.9677
 30
0.0
 10
-37.6568
 20
6.9193
 30
0.0
 10
-37.2838
 20
6.919
 30
0.0
  0
SPLINE
  5
5D
330
1F
100
AcDbEntity
  8
VRSTVA_1
 62
   250
100
AcDbSpline
210
0.0
220
0.0
230
1.0
 70
    11
 71
     3
 72
    20
 73
    16
 74
     0
 42
0.0000000001
 43
0.0000000001
 40
0.0
 40
0.0
 40
0.0
 40
0.0
 40
0.2
 40
0.2
 40
0.2
 40
0.2
 40
0.4
 40
0.4
 40
0.4
 40
0.4
 40
0.6
 40
0.6
 40
0.6
 40
0.6
 40
1.0
 40
1.0
 40
1.0
 40
1.0
 10
-36.8427
 20
9.2483
 30
0.0
 10
-36.8427
 20
9.2483
 30
0.0
 10
-37.1232
 20
9.2486
 30
0.0
 10
-37.1232
 20
9.2486
 30
0.0
 10
-37.1232
 20
9.2486
 30
0.0
 10
-37.1232
 20
9.2486
 30
0.0
 10
-37.1224
 20
10.1064
 30
0.0
 10
-37.1224
 20
10.1064
 30
0.0
 10
-37.1224
 20
10.1064
 30
0.0
 10
-37.1224
 20
10.1064
 30
0.0
 10
-36.8419
 20
10.1061
 30
0.0
 10
-36.8419
 20
10.1061
 30
0.0
 10
-36.8419
 20
10.1061
 30
0.0
 10
-36.8419
 20
10.1061
 30
0.0
 10
-36.8427
 20
9.2483
 30
0.0
 10
-36.8427
 20
9.2483
 30
0.0
  0
SPLINE
  5
5E
330
1F
100
AcDbEntity
  8
VRSTVA_1
 62
   250
100
AcDbSpline
210
0.0
220
0.0
230
1.0
 70
    11
 71
     3
 72
    40
 73
    36
 74
     0
 42
0.0000000001
 43
0.0000000001
 40
0.0
 40
0.0
 40
0.0
 40
0.0
 40
0.1
 40
0.1
 40
0.1
 40
0.1
 40
0.2
 40
0.2
 40
0.2
 40
0.2
 40
0.3
 40
0.3
 40
0.3
 40
0.3
 40
0.4
 40
0.4
 40
0.4
 40
0.4
 40
0.5
 40
0.5
 40
0.5
 40
0.5
 40
0.6
 40
0.6
 40
0.6
 40
0.6
 40
0.7
 40
0.7
 40
0.7
 40
0.7
 40
0.8
 40
0.8
 40
0.8
 40
0.8
 40
1.0
 40
1.0
 40
1.0
 40
1.0
 10
-36.1575
 20
12.2692
 30
0.0
 10
-36.1575
 20
12.2692
 30
0.0
 10
-36.1578
 20
11.9903
 30
0.0
 10
-36.1578
 20
11.9903
 30
0.0
 10
-36.1578
 20
11.9903
 30
0.0
 10
-36.1578
 20
11.9903
 30
0.0
 10
-37.9358
 20
11.9921
 30
0.0
 10
-37.9358
 20
11.9921
 30
0.0
 10
-37.9358
 20
11.9921
 30
0.0
 10
-37.8719
 20
11.9249
 30
0.0
 10
-37.8079
 20
11.837
 30
0.0
 10
-37.744
 20
11.7279
 30
0.0
 10
-37.744
 20
11.7279
 30
0.0
 10
-37.6801
 20
11.6183
 30
0.0
 10
-37.632
 20
11.5203
 30
0.0
 10
-37.6004
 20
11.4335
 30
0.0
 10
-37.6004
 20
11.4335
 30
0.0
 10
-37.6004
 20
11.4335
 30
0.0
 10
-37.8697
 20
11.4338
 30
0.0
 10
-37.8697
 20
11.4338
 30
0.0
 10
-37.8697
 20
11.4338
 30
0.0
 10
-37.9431
 20
11.59
 30
0.0
 10
-38.0319
 20
11.7266
 30
0.0
 10
-38.136
 20
11.8436
 30
0.0
 10
-38.136
 20
11.8436
 30
0.0
 10
-38.2406
 20
11.9601
 30
0.0
 10
-38.3417
 20
12.0433
 30
0.0
 10
-38.44
 20
12.0921
 30
0.0
 10
-38.44
 20
12.0921
 30
0.0
 10
-38.44
 20
12.0921
 30
0.0
 10
-38.4398
 20
12.2715
 30
0.0
 10
-38.4398
 20
12.2715
 30
0.0
 10
-38.4398
 20
12.2715
 30
0.0
 10
-38.4398
 20
12.2715
 30
0.0
 10
-36.1575
 20
12.2692
 30
0.0
 10
-36.1575
 20
12.2692
 30
0.0
  0
SPLINE
  5
5F
330
1F
100
AcDbEntity
  8
VRSTVA_1
 62
   250
100
AcDbSpline
210
0.0
220
0.0
230
1.0
 70
    11
 71
     3
 72
    48
 73
    44
 74
     0
 42
0.0000000001
 43
0.0000000001
 40
0.0
 40
0.0
 40
0.0
 40
0.0
 40
0.0833333333333333
 40
0.0833333333333333
 40
0.0833333333333333
 40
0.0833333333333333
 40
0.1666666666666667
 40
0.1666666666666667
 40
0.1666666666666667
 40
0.1666666666666667
 40
0.25
 40
0.25
 40
0.25
 40
0.25
 40
0.3333333333333333
 40
0.3333333333333333
 40
0.3333333333333333
 40
0.3333333333333333
 40
0.4166666666666667
 40
0.4166666666666667
 40
0.4166666666666667
 40
0.4166666666666667
 40
0.5
 40
0.5
 40
0.5
 40
0.5
 40
0.5833333333333334
 40
0.5833333333333334
 40
0.5833333333333334
 40
0.5833333333333334
 40
0.6666666666666666
 40
0.6666666666666666
 40
0.6666666666666666
 40
0.6666666666666666
 40
0.75
 40
0.75
 40
0.75
 40
0.75
 40
0.8333333333333334
 40
0.8333333333333334
 40
0.8333333333333334
 40
0.8333333333333334
 40
1.0
 40
1.0
 40
1.0
 40
1.0
 10
-38.1317
 20
13.0046
 30
0.0
 10
-38.1317
 20
13.0046
 30
0.0
 10
-38.3999
 20
13.0049
 30
0.0
 10
-38.3999
 20
13.0049
 30
0.0
 10
-38.3999
 20
13.0049
 30
0.0
 10
-38.3999
 20
13.0049
 30
0.0
 10
-38.3984
 20
14.476
 30
0.0
 10
-38.3984
 20
14.476
 30
0.0
 10
-38.3984
 20
14.476
 30
0.0
 10
-38.3984
 20
14.476
 30
0.0
 10
-38.1815
 20
14.4758
 30
0.0
 10
-38.1815
 20
14.4758
 30
0.0
 10
-38.1815
 20
14.4758
 30
0.0
 10
-38.0276
 20
14.3311
 30
0.0
 10
-37.823
 20
14.1875
 30
0.0
 10
-37.568
 20
14.045
 30
0.0
 10
-37.568
 20
14.045
 30
0.0
 10
-37.3131
 20
13.9028
 30
0.0
 10
-37.0503
 20
13.7925
 30
0.0
 10
-36.7809
 20
13.7149
 30
0.0
 10
-36.7809
 20
13.7149
 30
0.0
 10
-36.5905
 20
13.6586
 30
0.0
 10
-36.3826
 20
13.623
 30
0.0
 10
-36.1562
 20
13.6074
 30
0.0
 10
-36.1562
 20
13.6074
 30
0.0
 10
-36.1562
 20
13.6074
 30
0.0
 10
-36.1564
 20
13.3206
 30
0.0
 10
-36.1564
 20
13.3206
 30
0.0
 10
-36.1564
 20
13.3206
 30
0.0
 10
-36.3353
 20
13.324
 30
0.0
 10
-36.5512
 20
13.3591
 30
0.0
 10
-36.8045
 20
13.4266
 30
0.0
 10
-36.8045
 20
13.4266
 30
0.0
 10
-37.0575
 20
13.494
 30
0.0
 10
-37.3018
 20
13.5906
 30
0.0
 10
-37.5366
 20
13.7162
 30
0.0
 10
-37.5366
 20
13.7162
 30
0.0
 10
-37.7714
 20
13.8425
 30
0.0
 10
-37.9698
 20
13.976
 30
0.0
 10
-38.1305
 20
14.118
 30
0.0
 10
-38.1305
 20
14.118
 30
0.0
 10
-38.1305
 20
14.118
 30
0.0
 10
-38.1317
 20
13.0046
 30
0.0
 10
-38.1317
 20
13.0046
 30
0.0
  0
SPLINE
  5
60
330
1F
100
AcDbEntity
  8
VRSTVA_1
 62
   250
100
AcDbSpline
210
0.0
220
0.0
230
1.0
 70
    11
 71
     3
 72
    52
 73
    48
 74
     0
 42
0.0000000001
 43
0.0000000001
 40
0.0
 40
0.0
 40
0.0
 40
0.0
 40
0.0769230769230769
 40
0.0769230769230769
 40
0.0769230769230769
 40
0.0769230769230769
 40
0.1538461538461539
 40
0.1538461538461539
 40
0.1538461538461539
 40
0.1538461538461539
 40
0.2307692307692308
 40
0.2307692307692308
 40
0.2307692307692308
 40
0.2307692307692308
 40
0.3076923076923077
 40
0.3076923076923077
 40
0.3076923076923077
 40
0.3076923076923077
 40
0.3846153846153846
 40
0.3846153846153846
 40
0.3846153846153846
 40
0.3846153846153846
 40
0.4615384615384616
 40
0.4615384615384616
 40
0.4615384615384616
 40
0.4615384615384616
 40
0.5384615384615384
 40
0.5384615384615384
 40
0.5384615384615384
 40
0.5384615384615384
 40
0.6153846153846154
 40
0.6153846153846154
 40
0.6153846153846154
 40
0.6153846153846154
 40
0.6923076923076923
 40
0.6923076923076923
 40
0.6923076923076923
 40
0.6923076923076923
 40
0.7692307692307693
 40
0.7692307692307693
 40
0.7692307692307693
 40
0.7692307692307693
 40
0.8461538461538461
 40
0.8461538461538461
 40
0.8461538461538461
 40
0.8461538461538461
 40
1.0
 40
1.0
 40
1.0
 40
1.0
 10
-37.2758
 20
14.7511
 30
0.0
 10
-37.5446
 20
14.7513
 30
0.0
 10
-37.7609
 20
14.7791
 30
0.0
 10
-37.9244
 20
14.8347
 30
0.0
 10
-37.9244
 20
14.8347
 30
0.0
 10
-38.0884
 20
14.89
 30
0.0
 10
-38.2147
 20
14.9726
 30
0.0
 10
-38.3035
 20
15.0817
 30
0.0
 10
-38.3035
 20
15.0817
 30
0.0
 10
-38.3923
 20
15.1908
 30
0.0
 10
-38.4367
 20
15.3279
 30
0.0
 10
-38.4365
 20
15.493
 30
0.0
 10
-38.4365
 20
15.493
 30
0.0
 10
-38.4364
 20
15.6152
 30
0.0
 10
-38.4114
 20
15.7221
 30
0.0
 10
-38.3621
 20
15.8142
 30
0.0
 10
-38.3621
 20
15.8142
 30
0.0
 10
-38.3133
 20
15.9062
 30
0.0
 10
-38.2423
 20
15.9817
 30
0.0
 10
-38.1496
 20
16.0421
 30
0.0
 10
-38.1496
 20
16.0421
 30
0.0
 10
-38.057
 20
16.1018
 30
0.0
 10
-37.9442
 20
16.1487
 30
0.0
 10
-37.8114
 20
16.1824
 30
0.0
 10
-37.8114
 20
16.1824
 30
0.0
 10
-37.6786
 20
16.2167
 30
0.0
 10
-37.4996
 20
16.2335
 30
0.0
 10
-37.2742
 20
16.2332
 30
0.0
 10
-37.2742
 20
16.2332
 30
0.0
 10
-37.0075
 20
16.233
 30
0.0
 10
-36.7927
 20
16.2052
 30
0.0
 10
-36.6287
 20
16.1505
 30
0.0
 10
-36.6287
 20
16.1505
 30
0.0
 10
-36.4648
 20
16.0953
 30
0.0
 10
-36.3384
 20
16.0132
 30
0.0
 10
-36.2491
 20
15.9041
 30
0.0
 10
-36.2491
 20
15.9041
 30
0.0
 10
-36.1597
 20
15.795
 30
0.0
 10
-36.1154
 20
15.6574
 30
0.0
 10
-36.1156
 20
15.4907
 30
0.0
 10
-36.1156
 20
15.4907
 30
0.0
 10
-36.1158
 20
15.2716
 30
0.0
 10
-36.1943
 20
15.0996
 30
0.0
 10
-36.3516
 20
14.975
 30
0.0
 10
-36.3516
 20
14.975
 30
0.0
 10
-36.5407
 20
14.8254
 30
0.0
 10
-36.8493
 20
14.7506
 30
0.0
 10
-37.2758
 20
14.7511
 30
0.0
  0
SPLINE
  5
61
330
1F
100
AcDbEntity
  8
VRSTVA_1
 62
   250
100
AcDbSpline
210
0.0
220
0.0
230
1.0
 70
    11
 71
     3
 72
    36
 73
    32
 74
     0
 42
0.0000000001
 43
0.0000000001
 40
0.0
 40
0.0
 40
0.0
 40
0.0
 40
0.1111111111111111
 40
0.1111111111111111
 40
0.1111111111111111
 40
0.1111111111111111
 40
0.2222222222222222
 40
0.2222222222222222
 40
0.2222222222222222
 40
0.2222222222222222
 40
0.3333333333333333
 40
0.3333333333333333
 40
0.3333333333333333
 40
0.3333333333333333
 40
0.4444444444444444
 40
0.4444444444444444
 40
0.4444444444444444
 40
0.4444444444444444
 40
0.5555555555555556
 40
0.5555555555555556
 40
0.5555555555555556
 40
0.5555555555555556
 40
0.6666666666666666
 40
0.6666666666666666
 40
0.6666666666666666
 40
0.6666666666666666
 40
0.7777777777777778
 40
0.7777777777777778
 40
0.7777777777777778
 40
0.7777777777777778
 40
1.0
 40
1.0
 40
1.0
 40
1.0
 10
-37.2755
 20
15.0379
 30
0.0
 10
-36.9024
 20
15.0375
 30
0.0
 10
-36.6541
 20
15.0811
 30
0.0
 10
-36.5302
 20
15.1683
 30
0.0
 10
-36.5302
 20
15.1683
 30
0.0
 10
-36.4069
 20
15.2555
 30
0.0
 10
-36.3448
 20
15.3628
 30
0.0
 10
-36.3447
 20
15.4909
 30
0.0
 10
-36.3447
 20
15.4909
 30
0.0
 10
-36.3446
 20
15.6195
 30
0.0
 10
-36.4069
 20
15.727
 30
0.0
 10
-36.5307
 20
15.8144
 30
0.0
 10
-36.5307
 20
15.8144
 30
0.0
 10
-36.6544
 20
15.9018
 30
0.0
 10
-36.9025
 20
15.9461
 30
0.0
 10
-37.2745
 20
15.9464
 30
0.0
 10
-37.2745
 20
15.9464
 30
0.0
 10
-37.6486
 20
15.9468
 30
0.0
 10
-37.8974
 20
15.9031
 30
0.0
 10
-38.0203
 20
15.8159
 30
0.0
 10
-38.0203
 20
15.8159
 30
0.0
 10
-38.1437
 20
15.7287
 30
0.0
 10
-38.2052
 20
15.6203
 30
0.0
 10
-38.2053
 20
15.4902
 30
0.0
 10
-38.2053
 20
15.4902
 30
0.0
 10
-38.2054
 20
15.3616
 30
0.0
 10
-38.1509
 20
15.2594
 30
0.0
 10
-38.0426
 20
15.1825
 30
0.0
 10
-38.0426
 20
15.1825
 30
0.0
 10
-37.9046
 20
15.0866
 30
0.0
 10
-37.6485
 20
15.0382
 30
0.0
 10
-37.2755
 20
15.0379
 30
0.0
  0
SPLINE
  5
62
330
1F
100
AcDbEntity
  8
VRSTVA_1
 62
   250
100
AcDbSpline
210
0.0
220
0.0
230
1.0
 70
    11
 71
     3
 72
    20
 73
    16
 74
     0
 42
0.0000000001
 43
0.0000000001
 40
0.0
 40
0.0
 40
0.0
 40
0.0
 40
0.2
 40
0.2
 40
0.2
 40
0.2
 40
0.4
 40
0.4
 40
0.4
 40
0.4
 40
0.6
 40
0.6
 40
0.6
 40
0.6
 40
1.0
 40
1.0
 40
1.0
 40
1.0
 10
-16.1596
 20
30.7653
 30
0.0
 10
-16.1596
 20
30.7653
 30
0.0
 10
-19.1589
 20
30.3713
 30
0.0
 10
-19.1589
 20
30.3713
 30
0.0
 10
-19.1589
 20
30.3713
 30
0.0
 10
-19.1589
 20
30.3713
 30
0.0
 10
-19.1582
 20
30.213
 30
0.0
 10
-19.1582
 20
30.213
 30
0.0
 10
-19.1582
 20
30.213
 30
0.0
 10
-19.1582
 20
30.213
 30
0.0
 10
-16.1495
 20
29.7583
 30
0.0
 10
-16.1495
 20
29.7583
 30
0.0
 10
-16.1495
 20
29.7583
 30
0.0
 10
-16.1495
 20
29.7583
 30
0.0
 10
-16.1596
 20
30.7653
 30
0.0
 10
-16.1596
 20
30.7653
 30
0.0
  0
SPLINE
  5
63
330
1F
100
AcDbEntity
  8
VRSTVA_1
 62
   250
100
AcDbSpline
210
0.0
220
0.0
230
1.0
 70
    11
 71
     3
 72
    20
 73
    16
 74
     0
 42
0.0000000001
 43
0.0000000001
 40
0.0
 40
0.0
 40
0.0
 40
0.0
 40
0.2
 40
0.2
 40
0.2
 40
0.2
 40
0.4
 40
0.4
 40
0.4
 40
0.4
 40
0.6
 40
0.6
 40
0.6
 40
0.6
 40
1.0
 40
1.0
 40
1.0
 40
1.0
 10
-32.9197
 20
29.84
 30
0.0
 10
-32.9197
 20
29.84
 30
0.0
 10
-29.9204
 20
30.2339
 30
0.0
 10
-29.9204
 20
30.2339
 30
0.0
 10
-29.9204
 20
30.2339
 30
0.0
 10
-29.9204
 20
30.2339
 30
0.0
 10
-29.9211
 20
30.3922
 30
0.0
 10
-29.9211
 20
30.3922
 30
0.0
 10
-29.9211
 20
30.3922
 30
0.0
 10
-29.9211
 20
30.3922
 30
0.0
 10
-32.9298
 20
30.8469
 30
0.0
 10
-32.9298
 20
30.8469
 30
0.0
 10
-32.9298
 20
30.8469
 30
0.0
 10
-32.9298
 20
30.8469
 30
0.0
 10
-32.9197
 20
29.84
 30
0.0
 10
-32.9197
 20
29.84
 30
0.0
  0
SPLINE
  5
64
330
1F
100
AcDbEntity
  8
VRSTVA_1
 62
   250
100
AcDbSpline
210
0.0
220
0.0
230
1.0
 70
    11
 71
     3
 72
    20
 73
    16
 74
     0
 42
0.0000000001
 43
0.0000000001
 40
0.0
 40
0.0
 40
0.0
 40
0.0
 40
0.2
 40
0.2
 40
0.2
 40
0.2
 40
0.4
 40
0.4
 40
0.4
 40
0.4
 40
0.6
 40
0.6
 40
0.6
 40
0.6
 40
1.0
 40
1.0
 40
1.0
 40
1.0
 10
-21.5625
 20
16.1503
 30
0.0
 10
-21.5625
 20
16.1503
 30
0.0
 10
-24.5618
 20
15.7564
 30
0.0
 10
-24.5618
 20
15.7564
 30
0.0
 10
-24.5618
 20
15.7564
 30
0.0
 10
-24.5618
 20
15.7564
 30
0.0
 10
-24.5611
 20
15.5981
 30
0.0
 10
-24.5611
 20
15.5981
 30
0.0
 10
-24.5611
 20
15.5981
 30
0.0
 10
-24.5611
 20
15.5981
 30
0.0
 10
-21.5524
 20
15.1434
 30
0.0
 10
-21.5524
 20
15.1434
 30
0.0
 10
-21.5524
 20
15.1434
 30
0.0
 10
-21.5524
 20
15.1434
 30
0.0
 10
-21.5625
 20
16.1503
 30
0.0
 10
-21.5625
 20
16.1503
 30
0.0
  0
SPLINE
  5
65
330
1F
100
AcDbEntity
  8
VRSTVA_1
 62
   250
100
AcDbSpline
210
0.0
220
0.0
230
1.0
 70
    11
 71
     3
 72
    20
 73
    16
 74
     0
 42
0.0000000001
 43
0.0000000001
 40
0.0
 40
0.0
 40
0.0
 40
0.0
 40
0.2
 40
0.2
 40
0.2
 40
0.2
 40
0.4
 40
0.4
 40
0.4
 40
0.4
 40
0.6
 40
0.6
 40
0.6
 40
0.6
 40
1.0
 40
1.0
 40
1.0
 40
1.0
 10
33.0763
 20
15.1499
 30
0.0
 10
33.0763
 20
15.1499
 30
0.0
 10
36.0756
 20
15.5438
 30
0.0
 10
36.0756
 20
15.5438
 30
0.0
 10
36.0756
 20
15.5438
 30
0.0
 10
36.0756
 20
15.5438
 30
0.0
 10
36.0749
 20
15.7021
 30
0.0
 10
36.0749
 20
15.7021
 30
0.0
 10
36.0749
 20
15.7021
 30
0.0
 10
36.0749
 20
15.7021
 30
0.0
 10
33.0662
 20
16.1569
 30
0.0
 10
33.0662
 20
16.1569
 30
0.0
 10
33.0662
 20
16.1569
 30
0.0
 10
33.0662
 20
16.1569
 30
0.0
 10
33.0763
 20
15.1499
 30
0.0
 10
33.0763
 20
15.1499
 30
0.0
  0
SPLINE
  5
66
330
1F
100
AcDbEntity
  8
VRSTVA_1
 62
   250
100
AcDbSpline
210
0.0
220
0.0
230
1.0
 70
    11
 71
     3
 72
    20
 73
    16
 74
     0
 42
0.0000000001
 43
0.0000000001
 40
0.0
 40
0.0
 40
0.0
 40
0.0
 40
0.2
 40
0.2
 40
0.2
 40
0.2
 40
0.4
 40
0.4
 40
0.4
 40
0.4
 40
0.6
 40
0.6
 40
0.6
 40
0.6
 40
1.0
 40
1.0
 40
1.0
 40
1.0
 10
-35.8838
 20
-1.851
 30
0.0
 10
-35.8838
 20
-1.851
 30
0.0
 10
-35.4899
 20
-4.8503
 30
0.0
 10
-35.4899
 20
-4.8503
 30
0.0
 10
-35.4899
 20
-4.8503
 30
0.0
 10
-35.4899
 20
-4.8503
 30
0.0
 10
-35.3316
 20
-4.8496
 30
0.0
 10
-35.3316
 20
-4.8496
 30
0.0
 10
-35.3316
 20
-4.8496
 30
0.0
 10
-35.3316
 20
-4.8496
 30
0.0
 10
-34.8769
 20
-1.8409
 30
0.0
 10
-34.8769
 20
-1.8409
 30
0.0
 10
-34.8769
 20
-1.8409
 30
0.0
 10
-34.8769
 20
-1.8409
 30
0.0
 10
-35.8838
 20
-1.851
 30
0.0
 10
-35.8838
 20
-1.851
 30
0.0
  0
SPLINE
  5
67
330
1F
100
AcDbEntity
  8
VRSTVA_1
 62
   250
100
AcDbSpline
210
0.0
220
0.0
230
1.0
 70
    11
 71
     3
 72
    20
 73
    16
 74
     0
 42
0.0000000001
 43
0.0000000001
 40
0.0
 40
0.0
 40
0.0
 40
0.0
 40
0.2
 40
0.2
 40
0.2
 40
0.2
 40
0.4
 40
0.4
 40
0.4
 40
0.4
 40
0.6
 40
0.6
 40
0.6
 40
0.6
 40
1.0
 40
1.0
 40
1.0
 40
1.0
 10
-34.969
 20
24.3468
 30
0.0
 10
-34.969
 20
24.3468
 30
0.0
 10
-35.3629
 20
27.3461
 30
0.0
 10
-35.3629
 20
27.3461
 30
0.0
 10
-35.3629
 20
27.3461
 30
0.0
 10
-35.3629
 20
27.3461
 30
0.0
 10
-35.5212
 20
27.3454
 30
0.0
 10
-35.5212
 20
27.3454
 30
0.0
 10
-35.5212
 20
27.3454
 30
0.0
 10
-35.5212
 20
27.3454
 30
0.0
 10
-35.9759
 20
24.3367
 30
0.0
 10
-35.9759
 20
24.3367
 30
0.0
 10
-35.9759
 20
24.3367
 30
0.0
 10
-35.9759
 20
24.3367
 30
0.0
 10
-34.969
 20
24.3468
 30
0.0
 10
-34.969
 20
24.3468
 30
0.0
  0
SPLINE
  5
68
330
1F
100
AcDbEntity
  8
VRSTVA_1
 62
   250
100
AcDbSpline
210
0.0
220
0.0
230
1.0
 70
     8
 71
     3
 72
    32
 73
    28
 74
     0
 42
0.0000000001
 43
0.0000000001
 40
0.0
 40
0.0
 40
0.0
 40
0.0
 40
0.125
 40
0.125
 40
0.125
 40
0.125
 40
0.25
 40
0.25
 40
0.25
 40
0.25
 40
0.375
 40
0.375
 40
0.375
 40
0.375
 40
0.5
 40
0.5
 40
0.5
 40
0.5
 40
0.625
 40
0.625
 40
0.625
 40
0.625
 40
0.75
 40
0.75
 40
0.75
 40
0.75
 40
1.0
 40
1.0
 40
1.0
 40
1.0
 10
-18.6347
 20
26.9025
 30
0.0
 10
-18.6347
 20
26.9025
 30
0.0
 10
-18.6434
 20
24.4596
 30
0.0
 10
-18.6434
 20
24.4596
 30
0.0
 10
-18.6434
 20
24.4596
 30
0.0
 10
-18.6434
 20
24.1819
 30
0.0
 10
-18.8682
 20
23.957
 30
0.0
 10
-19.1457
 20
23.957
 30
0.0
 10
-19.1457
 20
23.957
 30
0.0
 10
-19.1457
 20
23.957
 30
0.0
 10
-30.2382
 20
23.9669
 30
0.0
 10
-30.2382
 20
23.9669
 30
0.0
 10
-30.2382
 20
23.9669
 30
0.0
 10
-30.2382
 20
23.9669
 30
0.0
 10
-30.4762
 20
24.0264
 30
0.0
 10
-30.4762
 20
24.0264
 30
0.0
 10
-30.4762
 20
24.0264
 30
0.0
 10
-30.4762
 20
24.0264
 30
0.0
 10
-30.615
 20
24.205
 30
0.0
 10
-30.615
 20
24.205
 30
0.0
 10
-30.615
 20
24.205
 30
0.0
 10
-30.615
 20
24.205
 30
0.0
 10
-30.7341
 20
24.4628
 30
0.0
 10
-30.7341
 20
24.4628
 30
0.0
 10
-30.7341
 20
24.4628
 30
0.0
 10
-30.7341
 20
24.4628
 30
0.0
 10
-30.7142
 20
26.843
 30
0.0
 10
-30.7142
 20
26.843
 30
0.0
  0
SPLINE
  5
69
330
1F
100
AcDbEntity
  8
VRSTVA_1
 62
   250
100
AcDbSpline
210
0.0
220
0.0
230
1.0
 70
     8
 71
     3
 72
    16
 73
    12
 74
     0
 42
0.0000000001
 43
0.0000000001
 40
0.0
 40
0.0
 40
0.0
 40
0.0
 40
0.25
 40
0.25
 40
0.25
 40
0.25
 40
0.5
 40
0.5
 40
0.5
 40
0.5
 40
1.0
 40
1.0
 40
1.0
 40
1.0
 10
-18.5125
 20
24.3981
 30
0.0
 10
-18.5125
 20
24.3981
 30
0.0
 10
-18.5177
 20
27.4743
 30
0.0
 10
-18.5177
 20
27.4743
 30
0.0
 10
-18.5177
 20
27.4743
 30
0.0
 10
-18.5177
 20
27.4743
 30
0.0
 10
-30.8283
 20
27.4743
 30
0.0
 10
-30.8283
 20
27.4743
 30
0.0
 10
-30.8283
 20
27.4743
 30
0.0
 10
-30.8283
 20
27.4743
 30
0.0
 10
-30.8099
 20
24.3981
 30
0.0
 10
-30.8099
 20
24.3981
 30
0.0
  0
SPLINE
  5
6A
330
1F
100
AcDbEntity
  8
VRSTVA_1
 62
   250
100
AcDbSpline
210
0.0
220
0.0
230
1.0
 70
     8
 71
     3
 72
   136
 73
   132
 74
     0
 42
0.0000000001
 43
0.0000000001
 40
0.0
 40
0.0
 40
0.0
 40
0.0
 40
0.0294117647058824
 40
0.0294117647058824
 40
0.0294117647058824
 40
0.0294117647058824
 40
0.0588235294117647
 40
0.0588235294117647
 40
0.0588235294117647
 40
0.0588235294117647
 40
0.0882352941176471
 40
0.0882352941176471
 40
0.0882352941176471
 40
0.0882352941176471
 40
0.1176470588235294
 40
0.1176470588235294
 40
0.1176470588235294
 40
0.1176470588235294
 40
0.1470588235294118
 40
0.1470588235294118
 40
0.1470588235294118
 40
0.1470588235294118
 40
0.1764705882352941
 40
0.1764705882352941
 40
0.1764705882352941
 40
0.1764705882352941
 40
0.2058823529411765
 40
0.2058823529411765
 40
0.2058823529411765
 40
0.2058823529411765
 40
0.2352941176470588
 40
0.2352941176470588
 40
0.2352941176470588
 40
0.2352941176470588
 40
0.2647058823529412
 40
0.2647058823529412
 40
0.2647058823529412
 40
0.2647058823529412
 40
0.2941176470588235
 40
0.2941176470588235
 40
0.2941176470588235
 40
0.2941176470588235
 40
0.3235294117647059
 40
0.3235294117647059
 40
0.3235294117647059
 40
0.3235294117647059
 40
0.3529411764705883
 40
0.3529411764705883
 40
0.3529411764705883
 40
0.3529411764705883
 40
0.3823529411764706
 40
0.3823529411764706
 40
0.3823529411764706
 40
0.3823529411764706
 40
0.4117647058823529
 40
0.4117647058823529
 40
0.4117647058823529
 40
0.4117647058823529
 40
0.4411764705882353
 40
0.4411764705882353
 40
0.4411764705882353
 40
0.4411764705882353
 40
0.4705882352941176
 40
0.4705882352941176
 40
0.4705882352941176
 40
0.4705882352941176
 40
0.5
 40
0.5
 40
0.5
 40
0.5
 40
0.5294117647058824
 40
0.5294117647058824
 40
0.5294117647058824
 40
0.5294117647058824
 40
0.5588235294117647
 40
0.5588235294117647
 40
0.5588235294117647
 40
0.5588235294117647
 40
0.5882352941176471
 40
0.5882352941176471
 40
0.5882352941176471
 40
0.5882352941176471
 40
0.6176470588235294
 40
0.6176470588235294
 40
0.6176470588235294
 40
0.6176470588235294
 40
0.6470588235294118
 40
0.6470588235294118
 40
0.6470588235294118
 40
0.6470588235294118
 40
0.6764705882352942
 40
0.6764705882352942
 40
0.6764705882352942
 40
0.6764705882352942
 40
0.7058823529411765
 40
0.7058823529411765
 40
0.7058823529411765
 40
0.7058823529411765
 40
0.7352941176470589
 40
0.7352941176470589
 40
0.7352941176470589
 40
0.7352941176470589
 40
0.7647058823529411
 40
0.7647058823529411
 40
0.7647058823529411
 40
0.7647058823529411
 40
0.7941176470588235
 40
0.7941176470588235
 40
0.7941176470588235
 40
0.7941176470588235
 40
0.8235294117647058
 40
0.8235294117647058
 40
0.8235294117647058
 40
0.8235294117647058
 40
0.8529411764705882
 40
0.8529411764705882
 40
0.8529411764705882
 40
0.8529411764705882
 40
0.8823529411764706
 40
0.8823529411764706
 40
0.8823529411764706
 40
0.8823529411764706
 40
0.9117647058823529
 40
0.9117647058823529
 40
0.9117647058823529
 40
0.9117647058823529
 40
0.9411764705882353
 40
0.9411764705882353
 40
0.9411764705882353
 40
0.9411764705882353
 40
1.0
 40
1.0
 40
1.0
 40
1.0
 10
-18.4882
 20
26.7213
 30
0.0
 10
-18.4882
 20
26.7213
 30
0.0
 10
-19.9599
 20
26.7441
 30
0.0
 10
-19.9599
 20
26.7441
 30
0.0
 10
-19.9599
 20
26.7441
 30
0.0
 10
-19.9599
 20
26.7441
 30
0.0
 10
-19.9798
 20
24.9619
 30
0.0
 10
-19.9798
 20
24.9619
 30
0.0
 10
-19.9798
 20
24.9619
 30
0.0
 10
-19.9798
 20
24.9619
 30
0.0
 10
-19.9892
 20
24.8419
 30
0.0
 10
-19.9892
 20
24.8419
 30
0.0
 10
-19.9892
 20
24.8419
 30
0.0
 10
-19.9892
 20
24.8419
 30
0.0
 10
-20.0172
 20
24.7286
 30
0.0
 10
-20.0172
 20
24.7286
 30
0.0
 10
-20.0172
 20
24.7286
 30
0.0
 10
-20.0172
 20
24.7286
 30
0.0
 10
-20.0626
 20
24.6289
 30
0.0
 10
-20.0626
 20
24.6289
 30
0.0
 10
-20.0626
 20
24.6289
 30
0.0
 10
-20.0626
 20
24.6289
 30
0.0
 10
-20.1233
 20
24.5484
 30
0.0
 10
-20.1233
 20
24.5484
 30
0.0
 10
-20.1233
 20
24.5484
 30
0.0
 10
-20.1233
 20
24.5484
 30
0.0
 10
-20.1965
 20
24.4921
 30
0.0
 10
-20.1965
 20
24.4921
 30
0.0
 10
-20.1965
 20
24.4921
 30
0.0
 10
-20.1965
 20
24.4921
 30
0.0
 10
-20.278
 20
24.4631
 30
0.0
 10
-20.278
 20
24.4631
 30
0.0
 10
-20.278
 20
24.4631
 30
0.0
 10
-20.278
 20
24.4631
 30
0.0
 10
-20.3204
 20
24.4596
 30
0.0
 10
-20.3204
 20
24.4596
 30
0.0
 10
-20.3204
 20
24.4596
 30
0.0
 10
-20.3204
 20
24.4596
 30
0.0
 10
-20.5079
 20
24.5146
 30
0.0
 10
-20.5079
 20
24.5146
 30
0.0
 10
-20.5079
 20
24.5146
 30
0.0
 10
-20.5079
 20
24.5146
 30
0.0
 10
-20.6333
 20
24.6974
 30
0.0
 10
-20.6333
 20
24.6974
 30
0.0
 10
-20.6333
 20
24.6974
 30
0.0
 10
-20.6333
 20
24.6974
 30
0.0
 10
-20.6675
 20
24.8461
 30
0.0
 10
-20.6675
 20
24.8461
 30
0.0
 10
-20.6675
 20
24.8461
 30
0.0
 10
-20.6675
 20
24.8461
 30
0.0
 10
-20.6675
 20
26.7557
 30
0.0
 10
-20.6675
 20
26.7557
 30
0.0
 10
-20.6675
 20
26.7557
 30
0.0
 10
-20.6675
 20
26.7557
 30
0.0
 10
-24.2049
 20
26.7441
 30
0.0
 10
-24.2049
 20
26.7441
 30
0.0
 10
-24.2049
 20
26.7441
 30
0.0
 10
-24.2049
 20
26.7441
 30
0.0
 10
-24.2049
 20
24.9148
 30
0.0
 10
-24.2049
 20
24.9148
 30
0.0
 10
-24.2049
 20
24.9148
 30
0.0
 10
-24.2049
 20
24.9148
 30
0.0
 10
-24.2961
 20
24.7204
 30
0.0
 10
-24.2961
 20
24.7204
 30
0.0
 10
-24.2961
 20
24.7204
 30
0.0
 10
-24.2961
 20
24.7204
 30
0.0
 10
-24.4216
 20
24.5603
 30
0.0
 10
-24.4216
 20
24.5603
 30
0.0
 10
-24.4216
 20
24.5603
 30
0.0
 10
-24.4216
 20
24.5603
 30
0.0
 10
-24.604
 20
24.4802
 30
0.0
 10
-24.604
 20
24.4802
 30
0.0
 10
-24.604
 20
24.4802
 30
0.0
 10
-24.604
 20
24.4802
 30
0.0
 10
-24.7982
 20
24.5146
 30
0.0
 10
-24.7982
 20
24.5146
 30
0.0
 10
-24.7982
 20
24.5146
 30
0.0
 10
-24.7982
 20
24.5146
 30
0.0
 10
-24.9693
 20
24.6059
 30
0.0
 10
-24.9693
 20
24.6059
 30
0.0
 10
-24.9693
 20
24.6059
 30
0.0
 10
-24.9693
 20
24.6059
 30
0.0
 10
-25.0719
 20
24.7889
 30
0.0
 10
-25.0719
 20
24.7889
 30
0.0
 10
-25.0719
 20
24.7889
 30
0.0
 10
-25.0719
 20
24.7889
 30
0.0
 10
-25.1289
 20
24.949
 30
0.0
 10
-25.1289
 20
24.949
 30
0.0
 10
-25.1289
 20
24.949
 30
0.0
 10
-25.1289
 20
24.949
 30
0.0
 10
-25.1517
 20
25.1206
 30
0.0
 10
-25.1517
 20
25.1206
 30
0.0
 10
-25.1517
 20
25.1206
 30
0.0
 10
-25.1517
 20
25.1206
 30
0.0
 10
-25.1517
 20
26.7786
 30
0.0
 10
-25.1517
 20
26.7786
 30
0.0
 10
-25.1517
 20
26.7786
 30
0.0
 10
-25.1517
 20
26.7786
 30
0.0
 10
-28.6392
 20
26.785
 30
0.0
 10
-28.6392
 20
26.785
 30
0.0
 10
-28.6392
 20
26.785
 30
0.0
 10
-28.6392
 20
26.785
 30
0.0
 10
-28.6392
 20
24.9205
 30
0.0
 10
-28.6392
 20
24.9205
 30
0.0
 10
-28.6392
 20
24.9205
 30
0.0
 10
-28.6392
 20
24.9205
 30
0.0
 10
-28.7302
 20
24.6465
 30
0.0
 10
-28.7302
 20
24.6465
 30
0.0
 10
-28.7302
 20
24.6465
 30
0.0
 10
-28.7302
 20
24.6465
 30
0.0
 10
-28.9514
 20
24.5161
 30
0.0
 10
-28.9514
 20
24.5161
 30
0.0
 10
-28.9514
 20
24.5161
 30
0.0
 10
-28.9514
 20
24.5161
 30
0.0
 10
-29.1857
 20
24.5293
 30
0.0
 10
-29.1857
 20
24.5293
 30
0.0
 10
-29.1857
 20
24.5293
 30
0.0
 10
-29.1857
 20
24.5293
 30
0.0
 10
-29.3027
 20
24.6726
 30
0.0
 10
-29.3027
 20
24.6726
 30
0.0
 10
-29.3027
 20
24.6726
 30
0.0
 10
-29.3027
 20
24.6726
 30
0.0
 10
-29.3679
 20
24.8553
 30
0.0
 10
-29.3679
 20
24.8553
 30
0.0
 10
-29.3679
 20
24.8553
 30
0.0
 10
-29.3679
 20
24.8553
 30
0.0
 10
-29.3808
 20
26.785
 30
0.0
 10
-29.3808
 20
26.785
 30
0.0
 10
-29.3808
 20
26.785
 30
0.0
 10
-29.3808
 20
26.785
 30
0.0
 10
-30.8382
 20
26.7719
 30
0.0
 10
-30.8382
 20
26.7719
 30
0.0
  0
SPLINE
  5
6B
330
1F
100
AcDbEntity
  8
VRSTVA_1
 62
   250
100
AcDbSpline
210
0.0
220
0.0
230
1.0
 70
    24
 71
     3
 72
     8
 73
     4
 74
     0
 42
0.0000000001
 43
0.0000000001
 40
0.0
 40
0.0
 40
0.0
 40
0.0
 40
1.0
 40
1.0
 40
1.0
 40
1.0
 10
-28.7027
 20
8.1423
 30
0.0
 10
-28.7027
 20
8.1423
 30
0.0
 10
-28.7027
 20
23.9154
 30
0.0
 10
-28.7027
 20
23.9154
 30
0.0
  0
SPLINE
  5
6C
330
1F
100
AcDbEntity
  8
VRSTVA_1
 62
   250
100
AcDbSpline
210
0.0
220
0.0
230
1.0
 70
    27
 71
     3
 72
    20
 73
    16
 74
     0
 42
0.0000000001
 43
0.0000000001
 40
0.0
 40
0.0
 40
0.0
 40
0.0
 40
0.2
 40
0.2
 40
0.2
 40
0.2
 40
0.4
 40
0.4
 40
0.4
 40
0.4
 40
0.6
 40
0.6
 40
0.6
 40
0.6
 40
1.0
 40
1.0
 40
1.0
 40
1.0
 10
-20.6648
 20
23.9704
 30
0.0
 10
-20.6648
 20
23.9704
 30
0.0
 10
-20.6648
 20
23.9005
 30
0.0
 10
-20.6648
 20
23.9005
 30
0.0
 10
-20.6648
 20
23.9005
 30
0.0
 10
-20.6648
 20
23.9005
 30
0.0
 10
-20.6648
 20
23.7919
 30
0.0
 10
-20.6648
 20
23.7919
 30
0.0
 10
-20.6648
 20
23.7919
 30
0.0
 10
-20.6648
 20
23.7919
 30
0.0
 10
-20.6648
 20
8.1413
 30
0.0
 10
-20.6648
 20
8.1413
 30
0.0
 10
-20.6648
 20
8.1413
 30
0.0
 10
-20.6648
 20
8.1413
 30
0.0
 10
-20.6648
 20
23.9704
 30
0.0
 10
-20.6648
 20
23.9704
 30
0.0
  0
SPLINE
  5
6D
330
1F
100
AcDbEntity
  8
VRSTVA_1
 62
   250
100
AcDbSpline
210
0.0
220
0.0
230
1.0
 70
    24
 71
     3
 72
     8
 73
     4
 74
     0
 42
0.0000000001
 43
0.0000000001
 40
0.0
 40
0.0
 40
0.0
 40
0.0
 40
1.0
 40
1.0
 40
1.0
 40
1.0
 10
-36.7037
 20
-4.9611
 30
0.0
 10
-36.7037
 20
-4.9611
 30
0.0
 10
-27.4615
 20
-4.9611
 30
0.0
 10
-27.4615
 20
-4.9611
 30
0.0
  0
SPLINE
  5
6E
330
1F
100
AcDbEntity
  8
VRSTVA_1
 62
   250
100
AcDbSpline
210
0.0
220
0.0
230
1.0
 70
    24
 71
     3
 72
     8
 73
     4
 74
     0
 42
0.0000000001
 43
0.0000000001
 40
0.0
 40
0.0
 40
0.0
 40
0.0
 40
1.0
 40
1.0
 40
1.0
 40
1.0
 10
-36.3391
 20
-32.4443
 30
0.0
 10
-36.3391
 20
-32.4443
 30
0.0
 10
-25.635
 20
-32.4443
 30
0.0
 10
-25.635
 20
-32.4443
 30
0.0
  0
SPLINE
  5
6F
330
1F
100
AcDbEntity
  8
VRSTVA_1
 62
   250
100
AcDbSpline
210
0.0
220
0.0
230
1.0
 70
    11
 71
     3
 72
    20
 73
    16
 74
     0
 42
0.0000000001
 43
0.0000000001
 40
0.0
 40
0.0
 40
0.0
 40
0.0
 40
0.2
 40
0.2
 40
0.2
 40
0.2
 40
0.4
 40
0.4
 40
0.4
 40
0.4
 40
0.6
 40
0.6
 40
0.6
 40
0.6
 40
1.0
 40
1.0
 40
1.0
 40
1.0
 10
-35.8838
 20
-29.3456
 30
0.0
 10
-35.8838
 20
-29.3456
 30
0.0
 10
-35.4899
 20
-32.345
 30
0.0
 10
-35.4899
 20
-32.345
 30
0.0
 10
-35.4899
 20
-32.345
 30
0.0
 10
-35.4899
 20
-32.345
 30
0.0
 10
-35.3316
 20
-32.3443
 30
0.0
 10
-35.3316
 20
-32.3443
 30
0.0
 10
-35.3316
 20
-32.3443
 30
0.0
 10
-35.3316
 20
-32.3443
 30
0.0
 10
-34.8769
 20
-29.3356
 30
0.0
 10
-34.8769
 20
-29.3356
 30
0.0
 10
-34.8769
 20
-29.3356
 30
0.0
 10
-34.8769
 20
-29.3356
 30
0.0
 10
-35.8838
 20
-29.3456
 30
0.0
 10
-35.8838
 20
-29.3456
 30
0.0
  0
SPLINE
  5
70
330
1F
100
AcDbEntity
  8
VRSTVA_1
 62
   250
100
AcDbSpline
210
0.0
220
0.0
230
1.0
 70
    11
 71
     3
 72
    20
 73
    16
 74
     0
 42
0.0000000001
 43
0.0000000001
 40
0.0
 40
0.0
 40
0.0
 40
0.0
 40
0.2
 40
0.2
 40
0.2
 40
0.2
 40
0.4
 40
0.4
 40
0.4
 40
0.4
 40
0.6
 40
0.6
 40
0.6
 40
0.6
 40
1.0
 40
1.0
 40
1.0
 40
1.0
 10
-34.9397
 20
-8.2168
 30
0.0
 10
-34.9397
 20
-8.2168
 30
0.0
 10
-35.3337
 20
-5.2174
 30
0.0
 10
-35.3337
 20
-5.2174
 30
0.0
 10
-35.3337
 20
-5.2174
 30
0.0
 10
-35.3337
 20
-5.2174
 30
0.0
 10
-35.492
 20
-5.2181
 30
0.0
 10
-35.492
 20
-5.2181
 30
0.0
 10
-35.492
 20
-5.2181
 30
0.0
 10
-35.492
 20
-5.2181
 30
0.0
 10
-35.9467
 20
-8.2268
 30
0.0
 10
-35.9467
 20
-8.2268
 30
0.0
 10
-35.9467
 20
-8.2268
 30
0.0
 10
-35.9467
 20
-8.2268
 30
0.0
 10
-34.9397
 20
-8.2168
 30
0.0
 10
-34.9397
 20
-8.2168
 30
0.0
  0
SPLINE
  5
71
330
1F
100
AcDbEntity
  8
VRSTVA_1
 62
   250
100
AcDbSpline
210
0.0
220
0.0
230
1.0
 70
    11
 71
     3
 72
    40
 73
    36
 74
     0
 42
0.0000000001
 43
0.0000000001
 40
0.0
 40
0.0
 40
0.0
 40
0.0
 40
0.1
 40
0.1
 40
0.1
 40
0.1
 40
0.2
 40
0.2
 40
0.2
 40
0.2
 40
0.3
 40
0.3
 40
0.3
 40
0.3
 40
0.4
 40
0.4
 40
0.4
 40
0.4
 40
0.5
 40
0.5
 40
0.5
 40
0.5
 40
0.6
 40
0.6
 40
0.6
 40
0.6
 40
0.7
 40
0.7
 40
0.7
 40
0.7
 40
0.8
 40
0.8
 40
0.8
 40
0.8
 40
1.0
 40
1.0
 40
1.0
 40
1.0
 10
-35.922
 20
-19.8298
 30
0.0
 10
-35.922
 20
-19.8298
 30
0.0
 10
-35.9223
 20
-20.1087
 30
0.0
 10
-35.9223
 20
-20.1087
 30
0.0
 10
-35.9223
 20
-20.1087
 30
0.0
 10
-35.9223
 20
-20.1087
 30
0.0
 10
-37.7003
 20
-20.1069
 30
0.0
 10
-37.7003
 20
-20.1069
 30
0.0
 10
-37.7003
 20
-20.1069
 30
0.0
 10
-37.6363
 20
-20.1741
 30
0.0
 10
-37.5723
 20
-20.262
 30
0.0
 10
-37.5084
 20
-20.3711
 30
0.0
 10
-37.5084
 20
-20.3711
 30
0.0
 10
-37.4446
 20
-20.4807
 30
0.0
 10
-37.3965
 20
-20.5787
 30
0.0
 10
-37.3648
 20
-20.6655
 30
0.0
 10
-37.3648
 20
-20.6655
 30
0.0
 10
-37.3648
 20
-20.6655
 30
0.0
 10
-37.6341
 20
-20.6652
 30
0.0
 10
-37.6341
 20
-20.6652
 30
0.0
 10
-37.6341
 20
-20.6652
 30
0.0
 10
-37.7076
 20
-20.509
 30
0.0
 10
-37.7963
 20
-20.3724
 30
0.0
 10
-37.9004
 20
-20.2554
 30
0.0
 10
-37.9004
 20
-20.2554
 30
0.0
 10
-38.0051
 20
-20.1389
 30
0.0
 10
-38.1061
 20
-20.0556
 30
0.0
 10
-38.2045
 20
-20.0068
 30
0.0
 10
-38.2045
 20
-20.0068
 30
0.0
 10
-38.2045
 20
-20.0068
 30
0.0
 10
-38.2043
 20
-19.8274
 30
0.0
 10
-38.2043
 20
-19.8274
 30
0.0
 10
-38.2043
 20
-19.8274
 30
0.0
 10
-38.2043
 20
-19.8274
 30
0.0
 10
-35.922
 20
-19.8298
 30
0.0
 10
-35.922
 20
-19.8298
 30
0.0
  0
SPLINE
  5
72
330
1F
100
AcDbEntity
  8
VRSTVA_1
 62
   250
100
AcDbSpline
210
0.0
220
0.0
230
1.0
 70
    11
 71
     3
 72
    40
 73
    36
 74
     0
 42
0.0000000001
 43
0.0000000001
 40
0.0
 40
0.0
 40
0.0
 40
0.0
 40
0.1
 40
0.1
 40
0.1
 40
0.1
 40
0.2
 40
0.2
 40
0.2
 40
0.2
 40
0.3
 40
0.3
 40
0.3
 40
0.3
 40
0.4
 40
0.4
 40
0.4
 40
0.4
 40
0.5
 40
0.5
 40
0.5
 40
0.5
 40
0.6
 40
0.6
 40
0.6
 40
0.6
 40
0.7
 40
0.7
 40
0.7
 40
0.7
 40
0.8
 40
0.8
 40
0.8
 40
0.8
 40
1.0
 40
1.0
 40
1.0
 40
1.0
 10
-35.9204
 20
-18.2995
 30
0.0
 10
-35.9204
 20
-18.2995
 30
0.0
 10
-35.9207
 20
-18.5784
 30
0.0
 10
-35.9207
 20
-18.5784
 30
0.0
 10
-35.9207
 20
-18.5784
 30
0.0
 10
-35.9207
 20
-18.5784
 30
0.0
 10
-37.6987
 20
-18.5766
 30
0.0
 10
-37.6987
 20
-18.5766
 30
0.0
 10
-37.6987
 20
-18.5766
 30
0.0
 10
-37.6348
 20
-18.6438
 30
0.0
 10
-37.5707
 20
-18.7317
 30
0.0
 10
-37.5069
 20
-18.8408
 30
0.0
 10
-37.5069
 20
-18.8408
 30
0.0
 10
-37.443
 20
-18.9504
 30
0.0
 10
-37.3949
 20
-19.0484
 30
0.0
 10
-37.3633
 20
-19.1352
 30
0.0
 10
-37.3633
 20
-19.1352
 30
0.0
 10
-37.3633
 20
-19.1352
 30
0.0
 10
-37.6326
 20
-19.1349
 30
0.0
 10
-37.6326
 20
-19.1349
 30
0.0
 10
-37.6326
 20
-19.1349
 30
0.0
 10
-37.706
 20
-18.9787
 30
0.0
 10
-37.7948
 20
-18.8421
 30
0.0
 10
-37.8988
 20
-18.7251
 30
0.0
 10
-37.8988
 20
-18.7251
 30
0.0
 10
-38.0035
 20
-18.6086
 30
0.0
 10
-38.1045
 20
-18.5253
 30
0.0
 10
-38.2029
 20
-18.4765
 30
0.0
 10
-38.2029
 20
-18.4765
 30
0.0
 10
-38.2029
 20
-18.4765
 30
0.0
 10
-38.2027
 20
-18.2971
 30
0.0
 10
-38.2027
 20
-18.2971
 30
0.0
 10
-38.2027
 20
-18.2971
 30
0.0
 10
-38.2027
 20
-18.2971
 30
0.0
 10
-35.9204
 20
-18.2995
 30
0.0
 10
-35.9204
 20
-18.2995
 30
0.0
  0
SPLINE
  5
73
330
1F
100
AcDbEntity
  8
VRSTVA_1
 62
   250
100
AcDbSpline
210
0.0
220
0.0
230
1.0
 70
    11
 71
     3
 72
    52
 73
    48
 74
     0
 42
0.0000000001
 43
0.0000000001
 40
0.0
 40
0.0
 40
0.0
 40
0.0
 40
0.0769230769230769
 40
0.0769230769230769
 40
0.0769230769230769
 40
0.0769230769230769
 40
0.1538461538461539
 40
0.1538461538461539
 40
0.1538461538461539
 40
0.1538461538461539
 40
0.2307692307692308
 40
0.2307692307692308
 40
0.2307692307692308
 40
0.2307692307692308
 40
0.3076923076923077
 40
0.3076923076923077
 40
0.3076923076923077
 40
0.3076923076923077
 40
0.3846153846153846
 40
0.3846153846153846
 40
0.3846153846153846
 40
0.3846153846153846
 40
0.4615384615384616
 40
0.4615384615384616
 40
0.4615384615384616
 40
0.4615384615384616
 40
0.5384615384615384
 40
0.5384615384615384
 40
0.5384615384615384
 40
0.5384615384615384
 40
0.6153846153846154
 40
0.6153846153846154
 40
0.6153846153846154
 40
0.6153846153846154
 40
0.6923076923076923
 40
0.6923076923076923
 40
0.6923076923076923
 40
0.6923076923076923
 40
0.7692307692307693
 40
0.7692307692307693
 40
0.7692307692307693
 40
0.7692307692307693
 40
0.8461538461538461
 40
0.8461538461538461
 40
0.8461538461538461
 40
0.8461538461538461
 40
1.0
 40
1.0
 40
1.0
 40
1.0
 10
-37.0405
 20
-17.5834
 30
0.0
 10
-37.3093
 20
-17.5832
 30
0.0
 10
-37.5256
 20
-17.5554
 30
0.0
 10
-37.6891
 20
-17.4998
 30
0.0
 10
-37.6891
 20
-17.4998
 30
0.0
 10
-37.8531
 20
-17.4445
 30
0.0
 10
-37.9794
 20
-17.3619
 30
0.0
 10
-38.0682
 20
-17.2528
 30
0.0
 10
-38.0682
 20
-17.2528
 30
0.0
 10
-38.157
 20
-17.1437
 30
0.0
 10
-38.2014
 20
-17.0065
 30
0.0
 10
-38.2012
 20
-16.8414
 30
0.0
 10
-38.2012
 20
-16.8414
 30
0.0
 10
-38.2011
 20
-16.7192
 30
0.0
 10
-38.1761
 20
-16.6124
 30
0.0
 10
-38.1268
 20
-16.5203
 30
0.0
 10
-38.1268
 20
-16.5203
 30
0.0
 10
-38.078
 20
-16.4283
 30
0.0
 10
-38.007
 20
-16.3527
 30
0.0
 10
-37.9143
 20
-16.2924
 30
0.0
 10
-37.9143
 20
-16.2924
 30
0.0
 10
-37.8217
 20
-16.2327
 30
0.0
 10
-37.7089
 20
-16.1858
 30
0.0
 10
-37.5761
 20
-16.1521
 30
0.0
 10
-37.5761
 20
-16.1521
 30
0.0
 10
-37.4433
 20
-16.1178
 30
0.0
 10
-37.2643
 20
-16.101
 30
0.0
 10
-37.0389
 20
-16.1012
 30
0.0
 10
-37.0389
 20
-16.1012
 30
0.0
 10
-36.7722
 20
-16.1015
 30
0.0
 10
-36.5574
 20
-16.1293
 30
0.0
 10
-36.3934
 20
-16.184
 30
0.0
 10
-36.3934
 20
-16.184
 30
0.0
 10
-36.2295
 20
-16.2392
 30
0.0
 10
-36.1031
 20
-16.3213
 30
0.0
 10
-36.0138
 20
-16.4304
 30
0.0
 10
-36.0138
 20
-16.4304
 30
0.0
 10
-35.9244
 20
-16.5395
 30
0.0
 10
-35.8801
 20
-16.6771
 30
0.0
 10
-35.8803
 20
-16.8438
 30
0.0
 10
-35.8803
 20
-16.8438
 30
0.0
 10
-35.8805
 20
-17.0629
 30
0.0
 10
-35.959
 20
-17.2349
 30
0.0
 10
-36.1163
 20
-17.3595
 30
0.0
 10
-36.1163
 20
-17.3595
 30
0.0
 10
-36.3054
 20
-17.5091
 30
0.0
 10
-36.614
 20
-17.5839
 30
0.0
 10
-37.0405
 20
-17.5834
 30
0.0
  0
SPLINE
  5
74
330
1F
100
AcDbEntity
  8
VRSTVA_1
 62
   250
100
AcDbSpline
210
0.0
220
0.0
230
1.0
 70
    11
 71
     3
 72
    36
 73
    32
 74
     0
 42
0.0000000001
 43
0.0000000001
 40
0.0
 40
0.0
 40
0.0
 40
0.0
 40
0.1111111111111111
 40
0.1111111111111111
 40
0.1111111111111111
 40
0.1111111111111111
 40
0.2222222222222222
 40
0.2222222222222222
 40
0.2222222222222222
 40
0.2222222222222222
 40
0.3333333333333333
 40
0.3333333333333333
 40
0.3333333333333333
 40
0.3333333333333333
 40
0.4444444444444444
 40
0.4444444444444444
 40
0.4444444444444444
 40
0.4444444444444444
 40
0.5555555555555556
 40
0.5555555555555556
 40
0.5555555555555556
 40
0.5555555555555556
 40
0.6666666666666666
 40
0.6666666666666666
 40
0.6666666666666666
 40
0.6666666666666666
 40
0.7777777777777778
 40
0.7777777777777778
 40
0.7777777777777778
 40
0.7777777777777778
 40
1.0
 40
1.0
 40
1.0
 40
1.0
 10
-37.0402
 20
-17.2966
 30
0.0
 10
-36.6671
 20
-17.297
 30
0.0
 10
-36.4188
 20
-17.2534
 30
0.0
 10
-36.2949
 20
-17.1662
 30
0.0
 10
-36.2949
 20
-17.1662
 30
0.0
 10
-36.1715
 20
-17.079
 30
0.0
 10
-36.1095
 20
-16.9717
 30
0.0
 10
-36.1094
 20
-16.8436
 30
0.0
 10
-36.1094
 20
-16.8436
 30
0.0
 10
-36.1093
 20
-16.715
 30
0.0
 10
-36.1716
 20
-16.6075
 30
0.0
 10
-36.2954
 20
-16.5201
 30
0.0
 10
-36.2954
 20
-16.5201
 30
0.0
 10
-36.4191
 20
-16.4327
 30
0.0
 10
-36.6672
 20
-16.3884
 30
0.0
 10
-37.0392
 20
-16.388
 30
0.0
 10
-37.0392
 20
-16.388
 30
0.0
 10
-37.4133
 20
-16.3877
 30
0.0
 10
-37.6621
 20
-16.4314
 30
0.0
 10
-37.785
 20
-16.5186
 30
0.0
 10
-37.785
 20
-16.5186
 30
0.0
 10
-37.9084
 20
-16.6058
 30
0.0
 10
-37.9699
 20
-16.7142
 30
0.0
 10
-37.97
 20
-16.8443
 30
0.0
 10
-37.97
 20
-16.8443
 30
0.0
 10
-37.9701
 20
-16.9729
 30
0.0
 10
-37.9156
 20
-17.0751
 30
0.0
 10
-37.8073
 20
-17.152
 30
0.0
 10
-37.8073
 20
-17.152
 30
0.0
 10
-37.6693
 20
-17.2479
 30
0.0
 10
-37.4132
 20
-17.2963
 30
0.0
 10
-37.0402
 20
-17.2966
 30
0.0
  0
SPLINE
  5
75
330
1F
100
AcDbEntity
  8
VRSTVA_1
 62
   250
100
AcDbSpline
210
0.0
220
0.0
230
1.0
 70
    24
 71
     3
 72
     8
 73
     4
 74
     0
 42
0.0000000001
 43
0.0000000001
 40
0.0
 40
0.0
 40
0.0
 40
0.0
 40
1.0
 40
1.0
 40
1.0
 40
1.0
 10
-35.4388
 20
26.5429
 30
0.0
 10
-35.4388
 20
26.5429
 30
0.0
 10
-35.4388
 20
-4.8696
 30
0.0
 10
-35.4388
 20
-4.8696
 30
0.0
  0
SPLINE
  5
76
330
1F
100
AcDbEntity
  8
VRSTVA_1
 62
   250
100
AcDbSpline
210
0.0
220
0.0
230
1.0
 70
    24
 71
     3
 72
     8
 73
     4
 74
     0
 42
0.0000000001
 43
0.0000000001
 40
0.0
 40
0.0
 40
0.0
 40
0.0
 40
1.0
 40
1.0
 40
1.0
 40
1.0
 10
-30.5445
 20
-24.8803
 30
0.0
 10
-30.5445
 20
-24.8803
 30
0.0
 10
-14.0255
 20
-24.8803
 30
0.0
 10
-14.0255
 20
-24.8803
 30
0.0
  0
SPLINE
  5
77
330
1F
100
AcDbEntity
  8
VRSTVA_1
 62
   250
100
AcDbSpline
210
0.0
220
0.0
230
1.0
 70
    24
 71
     3
 72
     8
 73
     4
 74
     0
 42
0.0000000001
 43
0.0000000001
 40
0.0
 40
0.0
 40
0.0
 40
0.0
 40
1.0
 40
1.0
 40
1.0
 40
1.0
 10
-14.0411
 20
-22.3389
 30
0.0
 10
-14.0411
 20
-22.3389
 30
0.0
 10
-16.0963
 20
-22.3389
 30
0.0
 10
-16.0963
 20
-22.3389
 30
0.0
  0
SPLINE
  5
78
330
1F
100
AcDbEntity
  8
VRSTVA_1
 62
   250
100
AcDbSpline
210
0.0
220
0.0
230
1.0
 70
    24
 71
     3
 72
     8
 73
     4
 74
     0
 42
0.0000000001
 43
0.0000000001
 40
0.0
 40
0.0
 40
0.0
 40
0.0
 40
1.0
 40
1.0
 40
1.0
 40
1.0
 10
-16.8151
 20
-22.3389
 30
0.0
 10
-16.8151
 20
-22.3389
 30
0.0
 10
-21.7767
 20
-22.3389
 30
0.0
 10
-21.7767
 20
-22.3389
 30
0.0
  0
SPLINE
  5
79
330
1F
100
AcDbEntity
  8
VRSTVA_1
 62
   250
100
AcDbSpline
210
0.0
220
0.0
230
1.0
 70
    24
 71
     3
 72
     8
 73
     4
 74
     0
 42
0.0000000001
 43
0.0000000001
 40
0.0
 40
0.0
 40
0.0
 40
0.0
 40
1.0
 40
1.0
 40
1.0
 40
1.0
 10
-22.7933
 20
-22.3389
 30
0.0
 10
-22.7933
 20
-22.3389
 30
0.0
 10
-27.7548
 20
-22.3389
 30
0.0
 10
-27.7548
 20
-22.3389
 30
0.0
  0
SPLINE
  5
7A
330
1F
100
AcDbEntity
  8
VRSTVA_1
 62
   250
100
AcDbSpline
210
0.0
220
0.0
230
1.0
 70
    24
 71
     3
 72
     8
 73
     4
 74
     0
 42
0.0000000001
 43
0.0000000001
 40
0.0
 40
0.0
 40
0.0
 40
0.0
 40
1.0
 40
1.0
 40
1.0
 40
1.0
 10
-28.4736
 20
-22.3389
 30
0.0
 10
-28.4736
 20
-22.3389
 30
0.0
 10
-30.5288
 20
-22.3389
 30
0.0
 10
-30.5288
 20
-22.3389
 30
0.0
  0
SPLINE
  5
7B
330
1F
100
AcDbEntity
  8
VRSTVA_1
 62
   250
100
AcDbSpline
210
0.0
220
0.0
230
1.0
 70
    24
 71
     3
 72
     8
 73
     4
 74
     0
 42
0.0000000001
 43
0.0000000001
 40
0.0
 40
0.0
 40
0.0
 40
0.0
 40
1.0
 40
1.0
 40
1.0
 40
1.0
 10
-14.0255
 20
-21.5765
 30
0.0
 10
-14.0255
 20
-21.5765
 30
0.0
 10
-30.5445
 20
-21.5765
 30
0.0
 10
-30.5445
 20
-21.5765
 30
0.0
  0
SPLINE
  5
7C
330
1F
100
AcDbEntity
  8
VRSTVA_1
 62
   250
100
AcDbSpline
210
0.0
220
0.0
230
1.0
 70
    24
 71
     3
 72
     8
 73
     4
 74
     0
 42
0.0000000001
 43
0.0000000001
 40
0.0
 40
0.0
 40
0.0
 40
0.0
 40
1.0
 40
1.0
 40
1.0
 40
1.0
 10
-30.0362
 20
-20.9411
 30
0.0
 10
-30.0362
 20
-20.9411
 30
0.0
 10
-14.5338
 20
-20.9411
 30
0.0
 10
-14.5338
 20
-20.9411
 30
0.0
  0
SPLINE
  5
7D
330
1F
100
AcDbEntity
  8
VRSTVA_1
 62
   250
100
AcDbSpline
210
0.0
220
0.0
230
1.0
 70
    24
 71
     3
 72
     8
 73
     4
 74
     0
 42
0.0000000001
 43
0.0000000001
 40
0.0
 40
0.0
 40
0.0
 40
0.0
 40
1.0
 40
1.0
 40
1.0
 40
1.0
 10
-30.9257
 20
7.6458
 30
0.0
 10
-30.9257
 20
7.6458
 30
0.0
 10
-30.9257
 20
4.5998
 30
0.0
 10
-30.9257
 20
4.5998
 30
0.0
  0
SPLINE
  5
7E
330
1F
100
AcDbEntity
  8
VRSTVA_1
 62
   250
100
AcDbSpline
210
0.0
220
0.0
230
1.0
 70
    24
 71
     3
 72
     8
 73
     4
 74
     0
 42
0.0000000001
 43
0.0000000001
 40
0.0
 40
0.0
 40
0.0
 40
0.0
 40
1.0
 40
1.0
 40
1.0
 40
1.0
 10
-8.991
 20
1.4153
 30
0.0
 10
-8.991
 20
1.4153
 30
0.0
 10
-12.037
 20
1.4153
 30
0.0
 10
-12.037
 20
1.4153
 30
0.0
  0
SPLINE
  5
7F
330
1F
100
AcDbEntity
  8
VRSTVA_1
 62
   250
100
AcDbSpline
210
0.0
220
0.0
230
1.0
 70
    24
 71
     3
 72
     8
 73
     4
 74
     0
 42
0.0000000001
 43
0.0000000001
 40
0.0
 40
0.0
 40
0.0
 40
0.0
 40
1.0
 40
1.0
 40
1.0
 40
1.0
 10
-30.7774
 20
7.1412
 30
0.0
 10
-30.7774
 20
7.1412
 30
0.0
 10
-30.7774
 20
5.3622
 30
0.0
 10
-30.7774
 20
5.3622
 30
0.0
  0
SPLINE
  5
80
330
1F
100
AcDbEntity
  8
VRSTVA_1
 62
   250
100
AcDbSpline
210
0.0
220
0.0
230
1.0
 70
    24
 71
     3
 72
     8
 73
     4
 74
     0
 42
0.0000000001
 43
0.0000000001
 40
0.0
 40
0.0
 40
0.0
 40
0.0
 40
1.0
 40
1.0
 40
1.0
 40
1.0
 10
-9.4956
 20
1.267
 30
0.0
 10
-9.4956
 20
1.267
 30
0.0
 10
-11.2746
 20
1.267
 30
0.0
 10
-11.2746
 20
1.267
 30
0.0
  0
SPLINE
  5
81
330
1F
100
AcDbEntity
  8
VRSTVA_1
 62
   250
100
AcDbSpline
210
0.0
220
0.0
230
1.0
 70
    24
 71
     3
 72
     8
 73
     4
 74
     0
 42
0.0000000001
 43
0.0000000001
 40
0.0
 40
0.0
 40
0.0
 40
0.0
 40
1.0
 40
1.0
 40
1.0
 40
1.0
 10
-30.5445
 20
-24.8803
 30
0.0
 10
-30.5445
 20
-24.8803
 30
0.0
 10
-30.5445
 20
-21.4494
 30
0.0
 10
-30.5445
 20
-21.4494
 30
0.0
  0
SPLINE
  5
82
330
1F
100
AcDbEntity
  8
VRSTVA_1
 62
   250
100
AcDbSpline
210
0.0
220
0.0
230
1.0
 70
    24
 71
     3
 72
     8
 73
     4
 74
     0
 42
0.0000000001
 43
0.0000000001
 40
0.0
 40
0.0
 40
0.0
 40
0.0
 40
1.0
 40
1.0
 40
1.0
 40
1.0
 10
-30.4015
 20
-24.372
 30
0.0
 10
-30.4015
 20
-24.372
 30
0.0
 10
-30.4015
 20
-22.3389
 30
0.0
 10
-30.4015
 20
-22.3389
 30
0.0
  0
SPLINE
  5
83
330
1F
100
AcDbEntity
  8
VRSTVA_1
 62
   250
100
AcDbSpline
210
0.0
220
0.0
230
1.0
 70
    24
 71
     3
 72
     8
 73
     4
 74
     0
 42
0.0000000001
 43
0.0000000001
 40
0.0
 40
0.0
 40
0.0
 40
0.0
 40
1.0
 40
1.0
 40
1.0
 40
1.0
 10
-30.0235
 20
4.0915
 30
0.0
 10
-30.0235
 20
4.0915
 30
0.0
 10
-30.0235
 20
4.5998
 30
0.0
 10
-30.0235
 20
4.5998
 30
0.0
  0
SPLINE
  5
84
330
1F
100
AcDbEntity
  8
VRSTVA_1
 62
   250
100
AcDbSpline
210
0.0
220
0.0
230
1.0
 70
    24
 71
     3
 72
     8
 73
     4
 74
     0
 42
0.0000000001
 43
0.0000000001
 40
0.0
 40
0.0
 40
0.0
 40
0.0
 40
1.0
 40
1.0
 40
1.0
 40
1.0
 10
-12.5453
 20
0.5131
 30
0.0
 10
-12.5453
 20
0.5131
 30
0.0
 10
-12.037
 20
0.5131
 30
0.0
 10
-12.037
 20
0.5131
 30
0.0
  0
SPLINE
  5
85
330
1F
100
AcDbEntity
  8
VRSTVA_1
 62
   250
100
AcDbSpline
210
0.0
220
0.0
230
1.0
 70
    24
 71
     3
 72
     8
 73
     4
 74
     0
 42
0.0000000001
 43
0.0000000001
 40
0.0
 40
0.0
 40
0.0
 40
0.0
 40
1.0
 40
1.0
 40
1.0
 40
1.0
 10
-29.6296
 20
-20.5599
 30
0.0
 10
-29.6296
 20
-20.5599
 30
0.0
 10
-29.6296
 20
0.9148
 30
0.0
 10
-29.6296
 20
0.9148
 30
0.0
  0
SPLINE
  5
86
330
1F
100
AcDbEntity
  8
VRSTVA_1
 62
   250
100
AcDbSpline
210
0.0
220
0.0
230
1.0
 70
    24
 71
     3
 72
     8
 73
     4
 74
     0
 42
0.0000000001
 43
0.0000000001
 40
0.0
 40
0.0
 40
0.0
 40
0.0
 40
1.0
 40
1.0
 40
1.0
 40
1.0
 10
-29.4467
 20
5.3622
 30
0.0
 10
-29.4467
 20
5.3622
 30
0.0
 10
-29.4467
 20
7.1412
 30
0.0
 10
-29.4467
 20
7.1412
 30
0.0
  0
SPLINE
  5
87
330
1F
100
AcDbEntity
  8
VRSTVA_1
 62
   250
100
AcDbSpline
210
0.0
220
0.0
230
1.0
 70
    24
 71
     3
 72
     8
 73
     4
 74
     0
 42
0.0000000001
 43
0.0000000001
 40
0.0
 40
0.0
 40
0.0
 40
0.0
 40
1.0
 40
1.0
 40
1.0
 40
1.0
 10
-11.2746
 20
-0.0636
 30
0.0
 10
-11.2746
 20
-0.0636
 30
0.0
 10
-9.4956
 20
-0.0636
 30
0.0
 10
-9.4956
 20
-0.0636
 30
0.0
  0
SPLINE
  5
88
330
1F
100
AcDbEntity
  8
VRSTVA_1
 62
   250
100
AcDbSpline
210
0.0
220
0.0
230
1.0
 70
    24
 71
     3
 72
     8
 73
     4
 74
     0
 42
0.0000000001
 43
0.0000000001
 40
0.0
 40
0.0
 40
0.0
 40
0.0
 40
1.0
 40
1.0
 40
1.0
 40
1.0
 10
-29.2738
 20
1.4853
 30
0.0
 10
-29.2738
 20
1.4853
 30
0.0
 10
-29.2738
 20
4.0915
 30
0.0
 10
-29.2738
 20
4.0915
 30
0.0
  0
SPLINE
  5
89
330
1F
100
AcDbEntity
  8
VRSTVA_1
 62
   250
100
AcDbSpline
210
0.0
220
0.0
230
1.0
 70
    24
 71
     3
 72
     8
 73
     4
 74
     0
 42
0.0000000001
 43
0.0000000001
 40
0.0
 40
0.0
 40
0.0
 40
0.0
 40
1.0
 40
1.0
 40
1.0
 40
1.0
 10
-15.1515
 20
-0.2366
 30
0.0
 10
-15.1515
 20
-0.2366
 30
0.0
 10
-12.5453
 20
-0.2366
 30
0.0
 10
-12.5453
 20
-0.2366
 30
0.0
  0
SPLINE
  5
8A
330
1F
100
AcDbEntity
  8
VRSTVA_1
 62
   250
100
AcDbSpline
210
0.0
220
0.0
230
1.0
 70
    24
 71
     3
 72
     8
 73
     4
 74
     0
 42
0.0000000001
 43
0.0000000001
 40
0.0
 40
0.0
 40
0.0
 40
0.0
 40
1.0
 40
1.0
 40
1.0
 40
1.0
 10
-28.7279
 20
5.3622
 30
0.0
 10
-28.7279
 20
5.3622
 30
0.0
 10
-28.7279
 20
7.1412
 30
0.0
 10
-28.7279
 20
7.1412
 30
0.0
  0
SPLINE
  5
8B
330
1F
100
AcDbEntity
  8
VRSTVA_1
 62
   250
100
AcDbSpline
210
0.0
220
0.0
230
1.0
 70
    24
 71
     3
 72
     8
 73
     4
 74
     0
 42
0.0000000001
 43
0.0000000001
 40
0.0
 40
0.0
 40
0.0
 40
0.0
 40
1.0
 40
1.0
 40
1.0
 40
1.0
 10
-11.2746
 20
-0.7825
 30
0.0
 10
-11.2746
 20
-0.7825
 30
0.0
 10
-9.4956
 20
-0.7825
 30
0.0
 10
-9.4956
 20
-0.7825
 30
0.0
  0
SPLINE
  5
8C
330
1F
100
AcDbEntity
  8
VRSTVA_1
 62
   250
100
AcDbSpline
210
0.0
220
0.0
230
1.0
 70
    24
 71
     3
 72
     8
 73
     4
 74
     0
 42
0.0000000001
 43
0.0000000001
 40
0.0
 40
0.0
 40
0.0
 40
0.0
 40
1.0
 40
1.0
 40
1.0
 40
1.0
 10
-28.4736
 20
-22.3389
 30
0.0
 10
-28.4736
 20
-22.3389
 30
0.0
 10
-28.4736
 20
-24.372
 30
0.0
 10
-28.4736
 20
-24.372
 30
0.0
  0
SPLINE
  5
8D
330
1F
100
AcDbEntity
  8
VRSTVA_1
 62
   250
100
AcDbSpline
210
0.0
220
0.0
230
1.0
 70
    24
 71
     3
 72
     8
 73
     4
 74
     0
 42
0.0000000001
 43
0.0000000001
 40
0.0
 40
0.0
 40
0.0
 40
0.0
 40
1.0
 40
1.0
 40
1.0
 40
1.0
 10
-27.7548
 20
-22.3389
 30
0.0
 10
-27.7548
 20
-22.3389
 30
0.0
 10
-27.7548
 20
-24.372
 30
0.0
 10
-27.7548
 20
-24.372
 30
0.0
  0
SPLINE
  5
8E
330
1F
100
AcDbEntity
  8
VRSTVA_1
 62
   250
100
AcDbSpline
210
0.0
220
0.0
230
1.0
 70
    24
 71
     3
 72
     8
 73
     4
 74
     0
 42
0.0000000001
 43
0.0000000001
 40
0.0
 40
0.0
 40
0.0
 40
0.0
 40
1.0
 40
1.0
 40
1.0
 40
1.0
 10
-25.2076
 20
5.3622
 30
0.0
 10
-25.2076
 20
5.3622
 30
0.0
 10
-25.2076
 20
7.1412
 30
0.0
 10
-25.2076
 20
7.1412
 30
0.0
  0
SPLINE
  5
8F
330
1F
100
AcDbEntity
  8
VRSTVA_1
 62
   250
100
AcDbSpline
210
0.0
220
0.0
230
1.0
 70
    24
 71
     3
 72
     8
 73
     4
 74
     0
 42
0.0000000001
 43
0.0000000001
 40
0.0
 40
0.0
 40
0.0
 40
0.0
 40
1.0
 40
1.0
 40
1.0
 40
1.0
 10
-11.2746
 20
-4.3028
 30
0.0
 10
-11.2746
 20
-4.3028
 30
0.0
 10
-9.4956
 20
-4.3028
 30
0.0
 10
-9.4956
 20
-4.3028
 30
0.0
  0
SPLINE
  5
90
330
1F
100
AcDbEntity
  8
VRSTVA_1
 62
   250
100
AcDbSpline
210
0.0
220
0.0
230
1.0
 70
    24
 71
     3
 72
     8
 73
     4
 74
     0
 42
0.0000000001
 43
0.0000000001
 40
0.0
 40
0.0
 40
0.0
 40
0.0
 40
1.0
 40
1.0
 40
1.0
 40
1.0
 10
-24.191
 20
5.3622
 30
0.0
 10
-24.191
 20
5.3622
 30
0.0
 10
-24.191
 20
7.1412
 30
0.0
 10
-24.191
 20
7.1412
 30
0.0
  0
SPLINE
  5
91
330
1F
100
AcDbEntity
  8
VRSTVA_1
 62
   250
100
AcDbSpline
210
0.0
220
0.0
230
1.0
 70
    24
 71
     3
 72
     8
 73
     4
 74
     0
 42
0.0000000001
 43
0.0000000001
 40
0.0
 40
0.0
 40
0.0
 40
0.0
 40
1.0
 40
1.0
 40
1.0
 40
1.0
 10
-11.2746
 20
-5.3193
 30
0.0
 10
-11.2746
 20
-5.3193
 30
0.0
 10
-9.4956
 20
-5.3193
 30
0.0
 10
-9.4956
 20
-5.3193
 30
0.0
  0
SPLINE
  5
92
330
1F
100
AcDbEntity
  8
VRSTVA_1
 62
   250
100
AcDbSpline
210
0.0
220
0.0
230
1.0
 70
    24
 71
     3
 72
     8
 73
     4
 74
     0
 42
0.0000000001
 43
0.0000000001
 40
0.0
 40
0.0
 40
0.0
 40
0.0
 40
1.0
 40
1.0
 40
1.0
 40
1.0
 10
-22.7933
 20
-22.3389
 30
0.0
 10
-22.7933
 20
-22.3389
 30
0.0
 10
-22.7933
 20
-24.372
 30
0.0
 10
-22.7933
 20
-24.372
 30
0.0
  0
SPLINE
  5
93
330
1F
100
AcDbEntity
  8
VRSTVA_1
 62
   250
100
AcDbSpline
210
0.0
220
0.0
230
1.0
 70
    24
 71
     3
 72
     8
 73
     4
 74
     0
 42
0.0000000001
 43
0.0000000001
 40
0.0
 40
0.0
 40
0.0
 40
0.0
 40
1.0
 40
1.0
 40
1.0
 40
1.0
 10
-21.7767
 20
-22.3389
 30
0.0
 10
-21.7767
 20
-22.3389
 30
0.0
 10
-21.7767
 20
-24.372
 30
0.0
 10
-21.7767
 20
-24.372
 30
0.0
  0
SPLINE
  5
94
330
1F
100
AcDbEntity
  8
VRSTVA_1
 62
   250
100
AcDbSpline
210
0.0
220
0.0
230
1.0
 70
    24
 71
     3
 72
     8
 73
     4
 74
     0
 42
0.0000000001
 43
0.0000000001
 40
0.0
 40
0.0
 40
0.0
 40
0.0
 40
1.0
 40
1.0
 40
1.0
 40
1.0
 10
-20.6706
 20
5.3622
 30
0.0
 10
-20.6706
 20
5.3622
 30
0.0
 10
-20.6706
 20
7.1412
 30
0.0
 10
-20.6706
 20
7.1412
 30
0.0
  0
SPLINE
  5
95
330
1F
100
AcDbEntity
  8
VRSTVA_1
 62
   250
100
AcDbSpline
210
0.0
220
0.0
230
1.0
 70
    24
 71
     3
 72
     8
 73
     4
 74
     0
 42
0.0000000001
 43
0.0000000001
 40
0.0
 40
0.0
 40
0.0
 40
0.0
 40
1.0
 40
1.0
 40
1.0
 40
1.0
 10
-11.2746
 20
-8.8397
 30
0.0
 10
-11.2746
 20
-8.8397
 30
0.0
 10
-9.4956
 20
-8.8397
 30
0.0
 10
-9.4956
 20
-8.8397
 30
0.0
  0
SPLINE
  5
96
330
1F
100
AcDbEntity
  8
VRSTVA_1
 62
   250
100
AcDbSpline
210
0.0
220
0.0
230
1.0
 70
    24
 71
     3
 72
     8
 73
     4
 74
     0
 42
0.0000000001
 43
0.0000000001
 40
0.0
 40
0.0
 40
0.0
 40
0.0
 40
1.0
 40
1.0
 40
1.0
 40
1.0
 10
-20.1248
 20
2.0008
 30
0.0
 10
-20.1248
 20
2.0008
 30
0.0
 10
-20.1248
 20
4.0915
 30
0.0
 10
-20.1248
 20
4.0915
 30
0.0
  0
SPLINE
  5
97
330
1F
100
AcDbEntity
  8
VRSTVA_1
 62
   250
100
AcDbSpline
210
0.0
220
0.0
230
1.0
 70
    24
 71
     3
 72
     8
 73
     4
 74
     0
 42
0.0000000001
 43
0.0000000001
 40
0.0
 40
0.0
 40
0.0
 40
0.0
 40
1.0
 40
1.0
 40
1.0
 40
1.0
 10
-14.9404
 20
-9.3856
 30
0.0
 10
-14.9404
 20
-9.3856
 30
0.0
 10
-12.5453
 20
-9.3856
 30
0.0
 10
-12.5453
 20
-9.3856
 30
0.0
  0
SPLINE
  5
98
330
1F
100
AcDbEntity
  8
VRSTVA_1
 62
   250
100
AcDbSpline
210
0.0
220
0.0
230
1.0
 70
    24
 71
     3
 72
     8
 73
     4
 74
     0
 42
0.0000000001
 43
0.0000000001
 40
0.0
 40
0.0
 40
0.0
 40
0.0
 40
1.0
 40
1.0
 40
1.0
 40
1.0
 10
-19.9519
 20
5.3622
 30
0.0
 10
-19.9519
 20
5.3622
 30
0.0
 10
-19.9519
 20
7.1412
 30
0.0
 10
-19.9519
 20
7.1412
 30
0.0
  0
SPLINE
  5
99
330
1F
100
AcDbEntity
  8
VRSTVA_1
 62
   250
100
AcDbSpline
210
0.0
220
0.0
230
1.0
 70
    24
 71
     3
 72
     8
 73
     4
 74
     0
 42
0.0000000001
 43
0.0000000001
 40
0.0
 40
0.0
 40
0.0
 40
0.0
 40
1.0
 40
1.0
 40
1.0
 40
1.0
 10
-11.2746
 20
-9.5585
 30
0.0
 10
-11.2746
 20
-9.5585
 30
0.0
 10
-9.4956
 20
-9.5585
 30
0.0
 10
-9.4956
 20
-9.5585
 30
0.0
  0
SPLINE
  5
9A
330
1F
100
AcDbEntity
  8
VRSTVA_1
 62
   250
100
AcDbSpline
210
0.0
220
0.0
230
1.0
 70
    24
 71
     3
 72
     8
 73
     4
 74
     0
 42
0.0000000001
 43
0.0000000001
 40
0.0
 40
0.0
 40
0.0
 40
0.0
 40
1.0
 40
1.0
 40
1.0
 40
1.0
 10
-19.3751
 20
4.0915
 30
0.0
 10
-19.3751
 20
4.0915
 30
0.0
 10
-19.3751
 20
4.5998
 30
0.0
 10
-19.3751
 20
4.5998
 30
0.0
  0
SPLINE
  5
9B
330
1F
100
AcDbEntity
  8
VRSTVA_1
 62
   250
100
AcDbSpline
210
0.0
220
0.0
230
1.0
 70
    24
 71
     3
 72
     8
 73
     4
 74
     0
 42
0.0000000001
 43
0.0000000001
 40
0.0
 40
0.0
 40
0.0
 40
0.0
 40
1.0
 40
1.0
 40
1.0
 40
1.0
 10
-12.5453
 20
-10.1353
 30
0.0
 10
-12.5453
 20
-10.1353
 30
0.0
 10
-12.037
 20
-10.1353
 30
0.0
 10
-12.037
 20
-10.1353
 30
0.0
  0
SPLINE
  5
9C
330
1F
100
AcDbEntity
  8
VRSTVA_1
 62
   250
100
AcDbSpline
210
0.0
220
0.0
230
1.0
 70
    24
 71
     3
 72
     8
 73
     4
 74
     0
 42
0.0000000001
 43
0.0000000001
 40
0.0
 40
0.0
 40
0.0
 40
0.0
 40
1.0
 40
1.0
 40
1.0
 40
1.0
 10
-18.6212
 20
7.1412
 30
0.0
 10
-18.6212
 20
7.1412
 30
0.0
 10
-18.6212
 20
5.3622
 30
0.0
 10
-18.6212
 20
5.3622
 30
0.0
  0
SPLINE
  5
9D
330
1F
100
AcDbEntity
  8
VRSTVA_1
 62
   250
100
AcDbSpline
210
0.0
220
0.0
230
1.0
 70
    24
 71
     3
 72
     8
 73
     4
 74
     0
 42
0.0000000001
 43
0.0000000001
 40
0.0
 40
0.0
 40
0.0
 40
0.0
 40
1.0
 40
1.0
 40
1.0
 40
1.0
 10
-9.4956
 20
-10.8892
 30
0.0
 10
-9.4956
 20
-10.8892
 30
0.0
 10
-11.2746
 20
-10.8892
 30
0.0
 10
-11.2746
 20
-10.8892
 30
0.0
  0
SPLINE
  5
9E
330
1F
100
AcDbEntity
  8
VRSTVA_1
 62
   250
100
AcDbSpline
210
0.0
220
0.0
230
1.0
 70
    24
 71
     3
 72
     8
 73
     4
 74
     0
 42
0.0000000001
 43
0.0000000001
 40
0.0
 40
0.0
 40
0.0
 40
0.0
 40
1.0
 40
1.0
 40
1.0
 40
1.0
 10
-18.4729
 20
7.6458
 30
0.0
 10
-18.4729
 20
7.6458
 30
0.0
 10
-18.4729
 20
4.5998
 30
0.0
 10
-18.4729
 20
4.5998
 30
0.0
  0
SPLINE
  5
9F
330
1F
100
AcDbEntity
  8
VRSTVA_1
 62
   250
100
AcDbSpline
210
0.0
220
0.0
230
1.0
 70
    24
 71
     3
 72
     8
 73
     4
 74
     0
 42
0.0000000001
 43
0.0000000001
 40
0.0
 40
0.0
 40
0.0
 40
0.0
 40
1.0
 40
1.0
 40
1.0
 40
1.0
 10
-8.991
 20
-11.0375
 30
0.0
 10
-8.991
 20
-11.0375
 30
0.0
 10
-12.037
 20
-11.0375
 30
0.0
 10
-12.037
 20
-11.0375
 30
0.0
  0
SPLINE
  5
A0
330
1F
100
AcDbEntity
  8
VRSTVA_1
 62
   250
100
AcDbSpline
210
0.0
220
0.0
230
1.0
 70
    24
 71
     3
 72
     8
 73
     4
 74
     0
 42
0.0000000001
 43
0.0000000001
 40
0.0
 40
0.0
 40
0.0
 40
0.0
 40
1.0
 40
1.0
 40
1.0
 40
1.0
 10
-16.8151
 20
-22.3389
 30
0.0
 10
-16.8151
 20
-22.3389
 30
0.0
 10
-16.8151
 20
-24.372
 30
0.0
 10
-16.8151
 20
-24.372
 30
0.0
  0
SPLINE
  5
A1
330
1F
100
AcDbEntity
  8
VRSTVA_1
 62
   250
100
AcDbSpline
210
0.0
220
0.0
230
1.0
 70
    24
 71
     3
 72
     8
 73
     4
 74
     0
 42
0.0000000001
 43
0.0000000001
 40
0.0
 40
0.0
 40
0.0
 40
0.0
 40
1.0
 40
1.0
 40
1.0
 40
1.0
 10
-16.0963
 20
-22.3389
 30
0.0
 10
-16.0963
 20
-22.3389
 30
0.0
 10
-16.0963
 20
-24.372
 30
0.0
 10
-16.0963
 20
-24.372
 30
0.0
  0
SPLINE
  5
A2
330
1F
100
AcDbEntity
  8
VRSTVA_1
 62
   250
100
AcDbSpline
210
0.0
220
0.0
230
1.0
 70
    24
 71
     3
 72
     8
 73
     4
 74
     0
 42
0.0000000001
 43
0.0000000001
 40
0.0
 40
0.0
 40
0.0
 40
0.0
 40
1.0
 40
1.0
 40
1.0
 40
1.0
 10
-14.9404
 20
-20.5598
 30
0.0
 10
-14.9404
 20
-20.5598
 30
0.0
 10
-14.9404
 20
-9.3778
 30
0.0
 10
-14.9404
 20
-9.3778
 30
0.0
  0
SPLINE
  5
A3
330
1F
100
AcDbEntity
  8
VRSTVA_1
 62
   250
100
AcDbSpline
210
0.0
220
0.0
230
1.0
 70
    24
 71
     3
 72
     8
 73
     4
 74
     0
 42
0.0000000001
 43
0.0000000001
 40
0.0
 40
0.0
 40
0.0
 40
0.0
 40
1.0
 40
1.0
 40
1.0
 40
1.0
 10
-14.9168
 20
-0.2365
 30
0.0
 10
-14.9168
 20
-0.2365
 30
0.0
 10
-14.9168
 20
0.8236
 30
0.0
 10
-14.9168
 20
0.8236
 30
0.0
  0
SPLINE
  5
A4
330
1F
100
AcDbEntity
  8
VRSTVA_1
 62
   250
100
AcDbSpline
210
0.0
220
0.0
230
1.0
 70
    24
 71
     3
 72
     8
 73
     4
 74
     0
 42
0.0000000001
 43
0.0000000001
 40
0.0
 40
0.0
 40
0.0
 40
0.0
 40
1.0
 40
1.0
 40
1.0
 40
1.0
 10
-14.9404
 20
0.8131
 30
0.0
 10
-14.9404
 20
0.8131
 30
0.0
 10
-14.9404
 20
0.9148
 30
0.0
 10
-14.9404
 20
0.9148
 30
0.0
  0
SPLINE
  5
A5
330
1F
100
AcDbEntity
  8
VRSTVA_1
 62
   250
100
AcDbSpline
210
0.0
220
0.0
230
1.0
 70
    24
 71
     3
 72
     8
 73
     4
 74
     0
 42
0.0000000001
 43
0.0000000001
 40
0.0
 40
0.0
 40
0.0
 40
0.0
 40
1.0
 40
1.0
 40
1.0
 40
1.0
 10
-14.1684
 20
-24.372
 30
0.0
 10
-14.1684
 20
-24.372
 30
0.0
 10
-14.1684
 20
-22.3389
 30
0.0
 10
-14.1684
 20
-22.3389
 30
0.0
  0
SPLINE
  5
A6
330
1F
100
AcDbEntity
  8
VRSTVA_1
 62
   250
100
AcDbSpline
210
0.0
220
0.0
230
1.0
 70
    24
 71
     3
 72
     8
 73
     4
 74
     0
 42
0.0000000001
 43
0.0000000001
 40
0.0
 40
0.0
 40
0.0
 40
0.0
 40
1.0
 40
1.0
 40
1.0
 40
1.0
 10
-14.0255
 20
-24.8803
 30
0.0
 10
-14.0255
 20
-24.8803
 30
0.0
 10
-14.0255
 20
-21.4494
 30
0.0
 10
-14.0255
 20
-21.4494
 30
0.0
  0
SPLINE
  5
A7
330
1F
100
AcDbEntity
  8
VRSTVA_1
 62
   250
100
AcDbSpline
210
0.0
220
0.0
230
1.0
 70
    24
 71
     3
 72
     8
 73
     4
 74
     0
 42
0.0000000001
 43
0.0000000001
 40
0.0
 40
0.0
 40
0.0
 40
0.0
 40
1.0
 40
1.0
 40
1.0
 40
1.0
 10
-30.0235
 20
4.0915
 30
0.0
 10
-30.0235
 20
4.0915
 30
0.0
 10
-19.3751
 20
4.0915
 30
0.0
 10
-19.3751
 20
4.0915
 30
0.0
  0
SPLINE
  5
A8
330
1F
100
AcDbEntity
  8
VRSTVA_1
 62
   250
100
AcDbSpline
210
0.0
220
0.0
230
1.0
 70
    24
 71
     3
 72
     8
 73
     4
 74
     0
 42
0.0000000001
 43
0.0000000001
 40
0.0
 40
0.0
 40
0.0
 40
0.0
 40
1.0
 40
1.0
 40
1.0
 40
1.0
 10
-12.5453
 20
0.5131
 30
0.0
 10
-12.5453
 20
0.5131
 30
0.0
 10
-12.5453
 20
-10.1353
 30
0.0
 10
-12.5453
 20
-10.1353
 30
0.0
  0
SPLINE
  5
A9
330
1F
100
AcDbEntity
  8
VRSTVA_1
 62
   250
100
AcDbSpline
210
0.0
220
0.0
230
1.0
 70
    24
 71
     3
 72
     8
 73
     4
 74
     0
 42
0.0000000001
 43
0.0000000001
 40
0.0
 40
0.0
 40
0.0
 40
0.0
 40
1.0
 40
1.0
 40
1.0
 40
1.0
 10
-30.9257
 20
4.5998
 30
0.0
 10
-30.9257
 20
4.5998
 30
0.0
 10
-18.4729
 20
4.5998
 30
0.0
 10
-18.4729
 20
4.5998
 30
0.0
  0
SPLINE
  5
AA
330
1F
100
AcDbEntity
  8
VRSTVA_1
 62
   250
100
AcDbSpline
210
0.0
220
0.0
230
1.0
 70
    24
 71
     3
 72
     8
 73
     4
 74
     0
 42
0.0000000001
 43
0.0000000001
 40
0.0
 40
0.0
 40
0.0
 40
0.0
 40
1.0
 40
1.0
 40
1.0
 40
1.0
 10
-12.037
 20
1.4153
 30
0.0
 10
-12.037
 20
1.4153
 30
0.0
 10
-12.037
 20
-11.0375
 30
0.0
 10
-12.037
 20
-11.0375
 30
0.0
  0
SPLINE
  5
AB
330
1F
100
AcDbEntity
  8
VRSTVA_1
 62
   250
100
AcDbSpline
210
0.0
220
0.0
230
1.0
 70
    24
 71
     3
 72
     8
 73
     4
 74
     0
 42
0.0000000001
 43
0.0000000001
 40
0.0
 40
0.0
 40
0.0
 40
0.0
 40
1.0
 40
1.0
 40
1.0
 40
1.0
 10
-30.9049
 20
5.3622
 30
0.0
 10
-30.9049
 20
5.3622
 30
0.0
 10
-29.4467
 20
5.3622
 30
0.0
 10
-29.4467
 20
5.3622
 30
0.0
  0
SPLINE
  5
AC
330
1F
100
AcDbEntity
  8
VRSTVA_1
 62
   250
100
AcDbSpline
210
0.0
220
0.0
230
1.0
 70
    24
 71
     3
 72
     8
 73
     4
 74
     0
 42
0.0000000001
 43
0.0000000001
 40
0.0
 40
0.0
 40
0.0
 40
0.0
 40
1.0
 40
1.0
 40
1.0
 40
1.0
 10
-11.2746
 20
1.3945
 30
0.0
 10
-11.2746
 20
1.3945
 30
0.0
 10
-11.2746
 20
-0.0636
 30
0.0
 10
-11.2746
 20
-0.0636
 30
0.0
  0
SPLINE
  5
AD
330
1F
100
AcDbEntity
  8
VRSTVA_1
 62
   250
100
AcDbSpline
210
0.0
220
0.0
230
1.0
 70
    24
 71
     3
 72
     8
 73
     4
 74
     0
 42
0.0000000001
 43
0.0000000001
 40
0.0
 40
0.0
 40
0.0
 40
0.0
 40
1.0
 40
1.0
 40
1.0
 40
1.0
 10
-28.7279
 20
5.3622
 30
0.0
 10
-28.7279
 20
5.3622
 30
0.0
 10
-25.2076
 20
5.3622
 30
0.0
 10
-25.2076
 20
5.3622
 30
0.0
  0
SPLINE
  5
AE
330
1F
100
AcDbEntity
  8
VRSTVA_1
 62
   250
100
AcDbSpline
210
0.0
220
0.0
230
1.0
 70
    24
 71
     3
 72
     8
 73
     4
 74
     0
 42
0.0000000001
 43
0.0000000001
 40
0.0
 40
0.0
 40
0.0
 40
0.0
 40
1.0
 40
1.0
 40
1.0
 40
1.0
 10
-11.2746
 20
-0.7825
 30
0.0
 10
-11.2746
 20
-0.7825
 30
0.0
 10
-11.2746
 20
-4.3028
 30
0.0
 10
-11.2746
 20
-4.3028
 30
0.0
  0
SPLINE
  5
AF
330
1F
100
AcDbEntity
  8
VRSTVA_1
 62
   250
100
AcDbSpline
210
0.0
220
0.0
230
1.0
 70
    24
 71
     3
 72
     8
 73
     4
 74
     0
 42
0.0000000001
 43
0.0000000001
 40
0.0
 40
0.0
 40
0.0
 40
0.0
 40
1.0
 40
1.0
 40
1.0
 40
1.0
 10
-24.191
 20
5.3622
 30
0.0
 10
-24.191
 20
5.3622
 30
0.0
 10
-20.6706
 20
5.3622
 30
0.0
 10
-20.6706
 20
5.3622
 30
0.0
  0
SPLINE
  5
B0
330
1F
100
AcDbEntity
  8
VRSTVA_1
 62
   250
100
AcDbSpline
210
0.0
220
0.0
230
1.0
 70
    24
 71
     3
 72
     8
 73
     4
 74
     0
 42
0.0000000001
 43
0.0000000001
 40
0.0
 40
0.0
 40
0.0
 40
0.0
 40
1.0
 40
1.0
 40
1.0
 40
1.0
 10
-11.2746
 20
-5.3193
 30
0.0
 10
-11.2746
 20
-5.3193
 30
0.0
 10
-11.2746
 20
-8.8397
 30
0.0
 10
-11.2746
 20
-8.8397
 30
0.0
  0
SPLINE
  5
B1
330
1F
100
AcDbEntity
  8
VRSTVA_1
 62
   250
100
AcDbSpline
210
0.0
220
0.0
230
1.0
 70
    24
 71
     3
 72
     8
 73
     4
 74
     0
 42
0.0000000001
 43
0.0000000001
 40
0.0
 40
0.0
 40
0.0
 40
0.0
 40
1.0
 40
1.0
 40
1.0
 40
1.0
 10
-19.9519
 20
5.3622
 30
0.0
 10
-19.9519
 20
5.3622
 30
0.0
 10
-18.4937
 20
5.3622
 30
0.0
 10
-18.4937
 20
5.3622
 30
0.0
  0
SPLINE
  5
B2
330
1F
100
AcDbEntity
  8
VRSTVA_1
 62
   250
100
AcDbSpline
210
0.0
220
0.0
230
1.0
 70
    24
 71
     3
 72
     8
 73
     4
 74
     0
 42
0.0000000001
 43
0.0000000001
 40
0.0
 40
0.0
 40
0.0
 40
0.0
 40
1.0
 40
1.0
 40
1.0
 40
1.0
 10
-11.2746
 20
-9.5585
 30
0.0
 10
-11.2746
 20
-9.5585
 30
0.0
 10
-11.2746
 20
-11.0167
 30
0.0
 10
-11.2746
 20
-11.0167
 30
0.0
  0
SPLINE
  5
B3
330
1F
100
AcDbEntity
  8
VRSTVA_1
 62
   250
100
AcDbSpline
210
0.0
220
0.0
230
1.0
 70
    24
 71
     3
 72
     8
 73
     4
 74
     0
 42
0.0000000001
 43
0.0000000001
 40
0.0
 40
0.0
 40
0.0
 40
0.0
 40
1.0
 40
1.0
 40
1.0
 40
1.0
 10
-18.4732
 20
7.6495
 30
0.0
 10
-18.4732
 20
7.6495
 30
0.0
 10
-18.6
 20
7.6495
 30
0.0
 10
-18.6
 20
7.6495
 30
0.0
  0
SPLINE
  5
B4
330
1F
100
AcDbEntity
  8
VRSTVA_1
 62
   250
100
AcDbSpline
210
0.0
220
0.0
230
1.0
 70
    24
 71
     3
 72
     8
 73
     4
 74
     0
 42
0.0000000001
 43
0.0000000001
 40
0.0
 40
0.0
 40
0.0
 40
0.0
 40
1.0
 40
1.0
 40
1.0
 40
1.0
 10
-8.9873
 20
-11.0372
 30
0.0
 10
-8.9873
 20
-11.0372
 30
0.0
 10
-8.9873
 20
-10.9104
 30
0.0
 10
-8.9873
 20
-10.9104
 30
0.0
  0
SPLINE
  5
B5
330
1F
100
AcDbEntity
  8
VRSTVA_1
 62
   250
100
AcDbSpline
210
0.0
220
0.0
230
1.0
 70
    24
 71
     3
 72
     8
 73
     4
 74
     0
 42
0.0000000001
 43
0.0000000001
 40
0.0
 40
0.0
 40
0.0
 40
0.0
 40
1.0
 40
1.0
 40
1.0
 40
1.0
 10
-30.9254
 20
7.6495
 30
0.0
 10
-30.9254
 20
7.6495
 30
0.0
 10
-30.7986
 20
7.6495
 30
0.0
 10
-30.7986
 20
7.6495
 30
0.0
  0
SPLINE
  5
B6
330
1F
100
AcDbEntity
  8
VRSTVA_1
 62
   250
100
AcDbSpline
210
0.0
220
0.0
230
1.0
 70
    24
 71
     3
 72
     8
 73
     4
 74
     0
 42
0.0000000001
 43
0.0000000001
 40
0.0
 40
0.0
 40
0.0
 40
0.0
 40
1.0
 40
1.0
 40
1.0
 40
1.0
 10
-8.9873
 20
1.415
 30
0.0
 10
-8.9873
 20
1.415
 30
0.0
 10
-8.9873
 20
1.2882
 30
0.0
 10
-8.9873
 20
1.2882
 30
0.0
  0
SPLINE
  5
B7
330
1F
100
AcDbEntity
  8
VRSTVA_1
 62
   250
100
AcDbSpline
210
0.0
220
0.0
230
1.0
 70
    24
 71
     3
 72
     8
 73
     4
 74
     0
 42
0.0000000001
 43
0.0000000001
 40
0.0
 40
0.0
 40
0.0
 40
0.0
 40
1.0
 40
1.0
 40
1.0
 40
1.0
 10
-19.1083
 20
8.1577
 30
0.0
 10
-19.1083
 20
8.1577
 30
0.0
 10
-30.2903
 20
8.1577
 30
0.0
 10
-30.2903
 20
8.1577
 30
0.0
  0
SPLINE
  5
B8
330
1F
100
AcDbEntity
  8
VRSTVA_1
 62
   250
100
AcDbSpline
210
0.0
220
0.0
230
1.0
 70
    24
 71
     3
 72
     8
 73
     4
 74
     0
 42
0.0000000001
 43
0.0000000001
 40
0.0
 40
0.0
 40
0.0
 40
0.0
 40
1.0
 40
1.0
 40
1.0
 40
1.0
 10
-8.479
 20
-10.4021
 30
0.0
 10
-8.479
 20
-10.4021
 30
0.0
 10
-8.479
 20
0.78
 30
0.0
 10
-8.479
 20
0.78
 30
0.0
  0
SPLINE
  5
B9
330
1F
100
AcDbEntity
  8
VRSTVA_1
 62
   250
100
AcDbSpline
210
0.0
220
0.0
230
1.0
 70
     8
 71
     3
 72
    12
 73
     8
 74
     0
 42
0.0000000001
 43
0.0000000001
 40
0.0
 40
0.0
 40
0.0
 40
0.0
 40
0.3333333333333333
 40
0.3333333333333333
 40
0.3333333333333333
 40
0.3333333333333333
 40
1.0
 40
1.0
 40
1.0
 40
1.0
 10
-24.191
 20
7.1412
 30
0.0
 10
-24.191
 20
7.4219
 30
0.0
 10
-24.4185
 20
7.6495
 30
0.0
 10
-24.6993
 20
7.6495
 30
0.0
 10
-24.6993
 20
7.6495
 30
0.0
 10
-24.98
 20
7.6495
 30
0.0
 10
-25.2076
 20
7.4219
 30
0.0
 10
-25.2076
 20
7.1412
 30
0.0
  0
SPLINE
  5
BA
330
1F
100
AcDbEntity
  8
VRSTVA_1
 62
   250
100
AcDbSpline
210
0.0
220
0.0
230
1.0
 70
     8
 71
     3
 72
    12
 73
     8
 74
     0
 42
0.0000000001
 43
0.0000000001
 40
0.0
 40
0.0
 40
0.0
 40
0.0
 40
0.3333333333333333
 40
0.3333333333333333
 40
0.3333333333333333
 40
0.3333333333333333
 40
1.0
 40
1.0
 40
1.0
 40
1.0
 10
-9.4956
 20
-5.3193
 30
0.0
 10
-9.2149
 20
-5.3193
 30
0.0
 10
-8.9873
 20
-5.0918
 30
0.0
 10
-8.9873
 20
-4.8111
 30
0.0
 10
-8.9873
 20
-4.8111
 30
0.0
 10
-8.9873
 20
-4.5304
 30
0.0
 10
-9.2149
 20
-4.3028
 30
0.0
 10
-9.4956
 20
-4.3028
 30
0.0
  0
SPLINE
  5
BB
330
1F
100
AcDbEntity
  8
VRSTVA_1
 62
   250
100
AcDbSpline
210
0.0
220
0.0
230
1.0
 70
     8
 71
     3
 72
     8
 73
     4
 74
     0
 42
0.0000000001
 43
0.0000000001
 40
0.0
 40
0.0
 40
0.0
 40
0.0
 40
1.0
 40
1.0
 40
1.0
 40
1.0
 10
-18.6
 20
7.6495
 30
0.0
 10
-18.6
 20
7.9301
 30
0.0
 10
-18.8275
 20
8.1577
 30
0.0
 10
-19.1083
 20
8.1577
 30
0.0
  0
SPLINE
  5
BC
330
1F
100
AcDbEntity
  8
VRSTVA_1
 62
   250
100
AcDbSpline
210
0.0
220
0.0
230
1.0
 70
     8
 71
     3
 72
     8
 73
     4
 74
     0
 42
0.0000000001
 43
0.0000000001
 40
0.0
 40
0.0
 40
0.0
 40
0.0
 40
1.0
 40
1.0
 40
1.0
 40
1.0
 10
-8.9873
 20
-10.9104
 30
0.0
 10
-8.7066
 20
-10.9104
 30
0.0
 10
-8.479
 20
-10.6829
 30
0.0
 10
-8.479
 20
-10.4021
 30
0.0
  0
SPLINE
  5
BD
330
1F
100
AcDbEntity
  8
VRSTVA_1
 62
   250
100
AcDbSpline
210
0.0
220
0.0
230
1.0
 70
     8
 71
     3
 72
     8
 73
     4
 74
     0
 42
0.0000000001
 43
0.0000000001
 40
0.0
 40
0.0
 40
0.0
 40
0.0
 40
1.0
 40
1.0
 40
1.0
 40
1.0
 10
-30.2903
 20
8.1577
 30
0.0
 10
-30.571
 20
8.1577
 30
0.0
 10
-30.7986
 20
7.9301
 30
0.0
 10
-30.7986
 20
7.6495
 30
0.0
  0
SPLINE
  5
BE
330
1F
100
AcDbEntity
  8
VRSTVA_1
 62
   250
100
AcDbSpline
210
0.0
220
0.0
230
1.0
 70
     8
 71
     3
 72
     8
 73
     4
 74
     0
 42
0.0000000001
 43
0.0000000001
 40
0.0
 40
0.0
 40
0.0
 40
0.0
 40
1.0
 40
1.0
 40
1.0
 40
1.0
 10
-8.479
 20
0.78
 30
0.0
 10
-8.479
 20
1.0607
 30
0.0
 10
-8.7066
 20
1.2882
 30
0.0
 10
-8.9873
 20
1.2882
 30
0.0
  0
SPLINE
  5
BF
330
1F
100
AcDbEntity
  8
VRSTVA_1
 62
   250
100
AcDbSpline
210
0.0
220
0.0
230
1.0
 70
     8
 71
     3
 72
    12
 73
     8
 74
     0
 42
0.0000000001
 43
0.0000000001
 40
0.0
 40
0.0
 40
0.0
 40
0.0
 40
0.3333333333333333
 40
0.3333333333333333
 40
0.3333333333333333
 40
0.3333333333333333
 40
1.0
 40
1.0
 40
1.0
 40
1.0
 10
-22.7933
 20
-24.372
 30
0.0
 10
-22.7933
 20
-24.6527
 30
0.0
 10
-22.5657
 20
-24.8803
 30
0.0
 10
-22.285
 20
-24.8803
 30
0.0
 10
-22.285
 20
-24.8803
 30
0.0
 10
-22.0042
 20
-24.8803
 30
0.0
 10
-21.7767
 20
-24.6527
 30
0.0
 10
-21.7767
 20
-24.372
 30
0.0
  0
SPLINE
  5
C0
330
1F
100
AcDbEntity
  8
VRSTVA_1
 62
   250
100
AcDbSpline
210
0.0
220
0.0
230
1.0
 70
     8
 71
     3
 72
     8
 73
     4
 74
     0
 42
0.0000000001
 43
0.0000000001
 40
0.0
 40
0.0
 40
0.0
 40
0.0
 40
1.0
 40
1.0
 40
1.0
 40
1.0
 10
-29.8942
 20
-25.3568
 30
0.0
 10
-29.911
 20
-25.0889
 30
0.0
 10
-30.1331
 20
-24.8803
 30
0.0
 10
-30.4015
 20
-24.8803
 30
0.0
  0
SPLINE
  5
C1
330
1F
100
AcDbEntity
  8
VRSTVA_1
 62
   250
100
AcDbSpline
210
0.0
220
0.0
230
1.0
 70
     8
 71
     3
 72
     8
 73
     4
 74
     0
 42
0.0000000001
 43
0.0000000001
 40
0.0
 40
0.0
 40
0.0
 40
0.0
 40
1.0
 40
1.0
 40
1.0
 40
1.0
 10
-14.1684
 20
-24.8803
 30
0.0
 10
-14.4368
 20
-24.8803
 30
0.0
 10
-14.6589
 20
-25.0889
 30
0.0
 10
-14.6757
 20
-25.3568
 30
0.0
  0
SPLINE
  5
C2
330
1F
100
AcDbEntity
  8
VRSTVA_1
 62
   250
100
AcDbSpline
210
0.0
220
0.0
230
1.0
 70
     8
 71
     3
 72
    12
 73
     8
 74
     0
 42
0.0000000001
 43
0.0000000001
 40
0.0
 40
0.0
 40
0.0
 40
0.0
 40
0.3333333333333333
 40
0.3333333333333333
 40
0.3333333333333333
 40
0.3333333333333333
 40
1.0
 40
1.0
 40
1.0
 40
1.0
 10
-29.8942
 20
-25.3568
 30
0.0
 10
-29.6426
 20
-29.3746
 30
0.0
 10
-26.3107
 20
-32.5044
 30
0.0
 10
-22.285
 20
-32.5044
 30
0.0
 10
-22.285
 20
-32.5044
 30
0.0
 10
-18.2593
 20
-32.5044
 30
0.0
 10
-14.9273
 20
-29.3746
 30
0.0
 10
-14.6757
 20
-25.3568
 30
0.0
  0
SPLINE
  5
C3
330
1F
100
AcDbEntity
  8
VRSTVA_1
 62
   250
100
AcDbSpline
210
0.0
220
0.0
230
1.0
 70
     8
 71
     3
 72
     8
 73
     4
 74
     0
 42
0.0000000001
 43
0.0000000001
 40
0.0
 40
0.0
 40
0.0
 40
0.0
 40
1.0
 40
1.0
 40
1.0
 40
1.0
 10
-30.0108
 20
-20.9411
 30
0.0
 10
-29.8002
 20
-20.9411
 30
0.0
 10
-29.6296
 20
-20.7705
 30
0.0
 10
-29.6296
 20
-20.5599
 30
0.0
  0
SPLINE
  5
C4
330
1F
100
AcDbEntity
  8
VRSTVA_1
 62
   250
100
AcDbSpline
210
0.0
220
0.0
230
1.0
 70
     8
 71
     3
 72
     8
 73
     4
 74
     0
 42
0.0000000001
 43
0.0000000001
 40
0.0
 40
0.0
 40
0.0
 40
0.0
 40
1.0
 40
1.0
 40
1.0
 40
1.0
 10
-14.9404
 20
-20.5599
 30
0.0
 10
-14.9404
 20
-20.7705
 30
0.0
 10
-14.7697
 20
-20.9411
 30
0.0
 10
-14.5592
 20
-20.9411
 30
0.0
  0
SPLINE
  5
C5
330
1F
100
AcDbEntity
  8
VRSTVA_1
 62
   250
100
AcDbSpline
210
0.0
220
0.0
230
1.0
 70
     8
 71
     3
 72
     8
 73
     4
 74
     0
 42
0.0000000001
 43
0.0000000001
 40
0.0
 40
0.0
 40
0.0
 40
0.0
 40
1.0
 40
1.0
 40
1.0
 40
1.0
 10
-30.0362
 20
-20.9411
 30
0.0
 10
-30.3169
 20
-20.9411
 30
0.0
 10
-30.5445
 20
-21.1687
 30
0.0
 10
-30.5445
 20
-21.4494
 30
0.0
  0
SPLINE
  5
C6
330
1F
100
AcDbEntity
  8
VRSTVA_1
 62
   250
100
AcDbSpline
210
0.0
220
0.0
230
1.0
 70
     8
 71
     3
 72
     8
 73
     4
 74
     0
 42
0.0000000001
 43
0.0000000001
 40
0.0
 40
0.0
 40
0.0
 40
0.0
 40
1.0
 40
1.0
 40
1.0
 40
1.0
 10
-14.0255
 20
-21.4494
 30
0.0
 10
-14.0255
 20
-21.1687
 30
0.0
 10
-14.253
 20
-20.9411
 30
0.0
 10
-14.5338
 20
-20.9411
 30
0.0
  0
SPLINE
  5
C7
330
1F
100
AcDbEntity
  8
VRSTVA_1
 62
   250
100
AcDbSpline
210
0.0
220
0.0
230
1.0
 70
     8
 71
     3
 72
     8
 73
     4
 74
     0
 42
0.0000000001
 43
0.0000000001
 40
0.0
 40
0.0
 40
0.0
 40
0.0
 40
1.0
 40
1.0
 40
1.0
 40
1.0
 10
-15.4812
 20
1.5431
 30
0.0
 10
-17.0203
 20
1.7745
 30
0.0
 10
-18.5701
 20
1.9273
 30
0.0
 10
-20.1248
 20
2.0008
 30
0.0
  0
SPLINE
  5
C8
330
1F
100
AcDbEntity
  8
VRSTVA_1
 62
   250
100
AcDbSpline
210
0.0
220
0.0
230
1.0
 70
     8
 71
     3
 72
     8
 73
     4
 74
     0
 42
0.0000000001
 43
0.0000000001
 40
0.0
 40
0.0
 40
0.0
 40
0.0
 40
1.0
 40
1.0
 40
1.0
 40
1.0
 10
-29.2738
 20
1.4853
 30
0.0
 10
-29.4915
 20
1.3786
 30
0.0
 10
-29.6296
 20
1.1573
 30
0.0
 10
-29.6296
 20
0.9148
 30
0.0
  0
SPLINE
  5
C9
330
1F
100
AcDbEntity
  8
VRSTVA_1
 62
   250
100
AcDbSpline
210
0.0
220
0.0
230
1.0
 70
     8
 71
     3
 72
     8
 73
     4
 74
     0
 42
0.0000000001
 43
0.0000000001
 40
0.0
 40
0.0
 40
0.0
 40
0.0
 40
1.0
 40
1.0
 40
1.0
 40
1.0
 10
-14.9404
 20
0.9148
 30
0.0
 10
-14.9404
 20
1.2292
 30
0.0
 10
-15.1703
 20
1.4963
 30
0.0
 10
-15.4812
 20
1.5431
 30
0.0
  0
SPLINE
  5
CA
330
1F
100
AcDbEntity
  8
VRSTVA_1
 62
   250
100
AcDbSpline
210
0.0
220
0.0
230
1.0
 70
     8
 71
     3
 72
    32
 73
    28
 74
     0
 42
0.0000000001
 43
0.0000000001
 40
0.0
 40
0.0
 40
0.0
 40
0.0
 40
0.125
 40
0.125
 40
0.125
 40
0.125
 40
0.25
 40
0.25
 40
0.25
 40
0.25
 40
0.375
 40
0.375
 40
0.375
 40
0.375
 40
0.5
 40
0.5
 40
0.5
 40
0.5
 40
0.625
 40
0.625
 40
0.625
 40
0.625
 40
0.75
 40
0.75
 40
0.75
 40
0.75
 40
1.0
 40
1.0
 40
1.0
 40
1.0
 10
-29.102
 20
7.6494
 30
0.0
 10
-29.102
 20
7.6494
 30
0.0
 10
-29.1451
 20
7.6458
 30
0.0
 10
-29.1451
 20
7.6458
 30
0.0
 10
-29.1451
 20
7.6458
 30
0.0
 10
-29.1451
 20
7.6458
 30
0.0
 10
-29.2275
 20
7.6165
 30
0.0
 10
-29.2275
 20
7.6165
 30
0.0
 10
-29.2275
 20
7.6165
 30
0.0
 10
-29.2275
 20
7.6165
 30
0.0
 10
-29.3014
 20
7.5595
 30
0.0
 10
-29.3014
 20
7.5595
 30
0.0
 10
-29.3014
 20
7.5595
 30
0.0
 10
-29.3014
 20
7.5595
 30
0.0
 10
-29.3628
 20
7.4782
 30
0.0
 10
-29.3628
 20
7.4782
 30
0.0
 10
-29.3628
 20
7.4782
 30
0.0
 10
-29.3628
 20
7.4782
 30
0.0
 10
-29.4088
 20
7.3772
 30
0.0
 10
-29.4088
 20
7.3772
 30
0.0
 10
-29.4088
 20
7.3772
 30
0.0
 10
-29.4088
 20
7.3772
 30
0.0
 10
-29.4371
 20
7.2627
 30
0.0
 10
-29.4371
 20
7.2627
 30
0.0
 10
-29.4371
 20
7.2627
 30
0.0
 10
-29.4371
 20
7.2627
 30
0.0
 10
-29.4467
 20
7.1412
 30
0.0
 10
-29.4467
 20
7.1412
 30
0.0
  0
SPLINE
  5
CB
330
1F
100
AcDbEntity
  8
VRSTVA_1
 62
   250
100
AcDbSpline
210
0.0
220
0.0
230
1.0
 70
     8
 71
     3
 72
    32
 73
    28
 74
     0
 42
0.0000000001
 43
0.0000000001
 40
0.0
 40
0.0
 40
0.0
 40
0.0
 40
0.125
 40
0.125
 40
0.125
 40
0.125
 40
0.25
 40
0.25
 40
0.25
 40
0.25
 40
0.375
 40
0.375
 40
0.375
 40
0.375
 40
0.5
 40
0.5
 40
0.5
 40
0.5
 40
0.625
 40
0.625
 40
0.625
 40
0.625
 40
0.75
 40
0.75
 40
0.75
 40
0.75
 40
1.0
 40
1.0
 40
1.0
 40
1.0
 10
-8.9874
 20
-0.4084
 30
0.0
 10
-8.9874
 20
-0.4084
 30
0.0
 10
-8.991
 20
-0.3653
 30
0.0
 10
-8.991
 20
-0.3653
 30
0.0
 10
-8.991
 20
-0.3653
 30
0.0
 10
-8.991
 20
-0.3653
 30
0.0
 10
-9.0203
 20
-0.2829
 30
0.0
 10
-9.0203
 20
-0.2829
 30
0.0
 10
-9.0203
 20
-0.2829
 30
0.0
 10
-9.0203
 20
-0.2829
 30
0.0
 10
-9.0773
 20
-0.209
 30
0.0
 10
-9.0773
 20
-0.209
 30
0.0
 10
-9.0773
 20
-0.209
 30
0.0
 10
-9.0773
 20
-0.209
 30
0.0
 10
-9.1586
 20
-0.1476
 30
0.0
 10
-9.1586
 20
-0.1476
 30
0.0
 10
-9.1586
 20
-0.1476
 30
0.0
 10
-9.1586
 20
-0.1476
 30
0.0
 10
-9.2596
 20
-0.1016
 30
0.0
 10
-9.2596
 20
-0.1016
 30
0.0
 10
-9.2596
 20
-0.1016
 30
0.0
 10
-9.2596
 20
-0.1016
 30
0.0
 10
-9.3741
 20
-0.0732
 30
0.0
 10
-9.3741
 20
-0.0732
 30
0.0
 10
-9.3741
 20
-0.0732
 30
0.0
 10
-9.3741
 20
-0.0732
 30
0.0
 10
-9.4956
 20
-0.0636
 30
0.0
 10
-9.4956
 20
-0.0636
 30
0.0
  0
SPLINE
  5
CC
330
1F
100
AcDbEntity
  8
VRSTVA_1
 62
   250
100
AcDbSpline
210
0.0
220
0.0
230
1.0
 70
     8
 71
     3
 72
    32
 73
    28
 74
     0
 42
0.0000000001
 43
0.0000000001
 40
0.0
 40
0.0
 40
0.0
 40
0.0
 40
0.125
 40
0.125
 40
0.125
 40
0.125
 40
0.25
 40
0.25
 40
0.25
 40
0.25
 40
0.375
 40
0.375
 40
0.375
 40
0.375
 40
0.5
 40
0.5
 40
0.5
 40
0.5
 40
0.625
 40
0.625
 40
0.625
 40
0.625
 40
0.75
 40
0.75
 40
0.75
 40
0.75
 40
1.0
 40
1.0
 40
1.0
 40
1.0
 10
-20.2965
 20
7.6494
 30
0.0
 10
-20.2965
 20
7.6494
 30
0.0
 10
-20.2535
 20
7.6458
 30
0.0
 10
-20.2535
 20
7.6458
 30
0.0
 10
-20.2535
 20
7.6458
 30
0.0
 10
-20.2535
 20
7.6458
 30
0.0
 10
-20.1711
 20
7.6165
 30
0.0
 10
-20.1711
 20
7.6165
 30
0.0
 10
-20.1711
 20
7.6165
 30
0.0
 10
-20.1711
 20
7.6165
 30
0.0
 10
-20.0972
 20
7.5595
 30
0.0
 10
-20.0972
 20
7.5595
 30
0.0
 10
-20.0972
 20
7.5595
 30
0.0
 10
-20.0972
 20
7.5595
 30
0.0
 10
-20.0357
 20
7.4782
 30
0.0
 10
-20.0357
 20
7.4782
 30
0.0
 10
-20.0357
 20
7.4782
 30
0.0
 10
-20.0357
 20
7.4782
 30
0.0
 10
-19.9898
 20
7.3772
 30
0.0
 10
-19.9898
 20
7.3772
 30
0.0
 10
-19.9898
 20
7.3772
 30
0.0
 10
-19.9898
 20
7.3772
 30
0.0
 10
-19.9614
 20
7.2627
 30
0.0
 10
-19.9614
 20
7.2627
 30
0.0
 10
-19.9614
 20
7.2627
 30
0.0
 10
-19.9614
 20
7.2627
 30
0.0
 10
-19.9519
 20
7.1412
 30
0.0
 10
-19.9519
 20
7.1412
 30
0.0
  0
SPLINE
  5
CD
330
1F
100
AcDbEntity
  8
VRSTVA_1
 62
   250
100
AcDbSpline
210
0.0
220
0.0
230
1.0
 70
     8
 71
     3
 72
    32
 73
    28
 74
     0
 42
0.0000000001
 43
0.0000000001
 40
0.0
 40
0.0
 40
0.0
 40
0.0
 40
0.125
 40
0.125
 40
0.125
 40
0.125
 40
0.25
 40
0.25
 40
0.25
 40
0.25
 40
0.375
 40
0.375
 40
0.375
 40
0.375
 40
0.5
 40
0.5
 40
0.5
 40
0.5
 40
0.625
 40
0.625
 40
0.625
 40
0.625
 40
0.75
 40
0.75
 40
0.75
 40
0.75
 40
1.0
 40
1.0
 40
1.0
 40
1.0
 10
-8.9874
 20
-9.2138
 30
0.0
 10
-8.9874
 20
-9.2138
 30
0.0
 10
-8.991
 20
-9.2569
 30
0.0
 10
-8.991
 20
-9.2569
 30
0.0
 10
-8.991
 20
-9.2569
 30
0.0
 10
-8.991
 20
-9.2569
 30
0.0
 10
-9.0203
 20
-9.3393
 30
0.0
 10
-9.0203
 20
-9.3393
 30
0.0
 10
-9.0203
 20
-9.3393
 30
0.0
 10
-9.0203
 20
-9.3393
 30
0.0
 10
-9.0773
 20
-9.4132
 30
0.0
 10
-9.0773
 20
-9.4132
 30
0.0
 10
-9.0773
 20
-9.4132
 30
0.0
 10
-9.0773
 20
-9.4132
 30
0.0
 10
-9.1586
 20
-9.4746
 30
0.0
 10
-9.1586
 20
-9.4746
 30
0.0
 10
-9.1586
 20
-9.4746
 30
0.0
 10
-9.1586
 20
-9.4746
 30
0.0
 10
-9.2596
 20
-9.5206
 30
0.0
 10
-9.2596
 20
-9.5206
 30
0.0
 10
-9.2596
 20
-9.5206
 30
0.0
 10
-9.2596
 20
-9.5206
 30
0.0
 10
-9.3741
 20
-9.549
 30
0.0
 10
-9.3741
 20
-9.549
 30
0.0
 10
-9.3741
 20
-9.549
 30
0.0
 10
-9.3741
 20
-9.549
 30
0.0
 10
-9.4956
 20
-9.5585
 30
0.0
 10
-9.4956
 20
-9.5585
 30
0.0
  0
SPLINE
  5
CE
330
1F
100
AcDbEntity
  8
VRSTVA_1
 62
   250
100
AcDbSpline
210
0.0
220
0.0
230
1.0
 70
     8
 71
     3
 72
    32
 73
    28
 74
     0
 42
0.0000000001
 43
0.0000000001
 40
0.0
 40
0.0
 40
0.0
 40
0.0
 40
0.125
 40
0.125
 40
0.125
 40
0.125
 40
0.25
 40
0.25
 40
0.25
 40
0.25
 40
0.375
 40
0.375
 40
0.375
 40
0.375
 40
0.5
 40
0.5
 40
0.5
 40
0.5
 40
0.625
 40
0.625
 40
0.625
 40
0.625
 40
0.75
 40
0.75
 40
0.75
 40
0.75
 40
1.0
 40
1.0
 40
1.0
 40
1.0
 10
-30.7774
 20
7.1412
 30
0.0
 10
-30.7774
 20
7.1412
 30
0.0
 10
-30.7784
 20
7.2535
 30
0.0
 10
-30.7784
 20
7.2535
 30
0.0
 10
-30.7784
 20
7.2535
 30
0.0
 10
-30.7784
 20
7.2535
 30
0.0
 10
-30.7814
 20
7.3624
 30
0.0
 10
-30.7814
 20
7.3624
 30
0.0
 10
-30.7814
 20
7.3624
 30
0.0
 10
-30.7814
 20
7.3624
 30
0.0
 10
-30.7857
 20
7.4588
 30
0.0
 10
-30.7857
 20
7.4588
 30
0.0
 10
-30.7857
 20
7.4588
 30
0.0
 10
-30.7857
 20
7.4588
 30
0.0
 10
-30.7903
 20
7.538
 30
0.0
 10
-30.7903
 20
7.538
 30
0.0
 10
-30.7903
 20
7.538
 30
0.0
 10
-30.7903
 20
7.538
 30
0.0
 10
-30.7946
 20
7.5991
 30
0.0
 10
-30.7946
 20
7.5991
 30
0.0
 10
-30.7946
 20
7.5991
 30
0.0
 10
-30.7946
 20
7.5991
 30
0.0
 10
-30.7975
 20
7.6369
 30
0.0
 10
-30.7975
 20
7.6369
 30
0.0
 10
-30.7975
 20
7.6369
 30
0.0
 10
-30.7975
 20
7.6369
 30
0.0
 10
-30.7986
 20
7.6495
 30
0.0
 10
-30.7986
 20
7.6495
 30
0.0
  0
SPLINE
  5
CF
330
1F
100
AcDbEntity
  8
VRSTVA_1
 62
   250
100
AcDbSpline
210
0.0
220
0.0
230
1.0
 70
     8
 71
     3
 72
    32
 73
    28
 74
     0
 42
0.0000000001
 43
0.0000000001
 40
0.0
 40
0.0
 40
0.0
 40
0.0
 40
0.125
 40
0.125
 40
0.125
 40
0.125
 40
0.25
 40
0.25
 40
0.25
 40
0.25
 40
0.375
 40
0.375
 40
0.375
 40
0.375
 40
0.5
 40
0.5
 40
0.5
 40
0.5
 40
0.625
 40
0.625
 40
0.625
 40
0.625
 40
0.75
 40
0.75
 40
0.75
 40
0.75
 40
1.0
 40
1.0
 40
1.0
 40
1.0
 10
-9.4956
 20
1.267
 30
0.0
 10
-9.4956
 20
1.267
 30
0.0
 10
-9.3833
 20
1.268
 30
0.0
 10
-9.3833
 20
1.268
 30
0.0
 10
-9.3833
 20
1.268
 30
0.0
 10
-9.3833
 20
1.268
 30
0.0
 10
-9.2744
 20
1.271
 30
0.0
 10
-9.2744
 20
1.271
 30
0.0
 10
-9.2744
 20
1.271
 30
0.0
 10
-9.2744
 20
1.271
 30
0.0
 10
-9.178
 20
1.2753
 30
0.0
 10
-9.178
 20
1.2753
 30
0.0
 10
-9.178
 20
1.2753
 30
0.0
 10
-9.178
 20
1.2753
 30
0.0
 10
-9.0988
 20
1.2799
 30
0.0
 10
-9.0988
 20
1.2799
 30
0.0
 10
-9.0988
 20
1.2799
 30
0.0
 10
-9.0988
 20
1.2799
 30
0.0
 10
-9.0376
 20
1.2842
 30
0.0
 10
-9.0376
 20
1.2842
 30
0.0
 10
-9.0376
 20
1.2842
 30
0.0
 10
-9.0376
 20
1.2842
 30
0.0
 10
-8.9998
 20
1.2872
 30
0.0
 10
-8.9998
 20
1.2872
 30
0.0
 10
-8.9998
 20
1.2872
 30
0.0
 10
-8.9998
 20
1.2872
 30
0.0
 10
-8.9873
 20
1.2882
 30
0.0
 10
-8.9873
 20
1.2882
 30
0.0
  0
SPLINE
  5
D0
330
1F
100
AcDbEntity
  8
VRSTVA_1
 62
   250
100
AcDbSpline
210
0.0
220
0.0
230
1.0
 70
     8
 71
     3
 72
    32
 73
    28
 74
     0
 42
0.0000000001
 43
0.0000000001
 40
0.0
 40
0.0
 40
0.0
 40
0.0
 40
0.125
 40
0.125
 40
0.125
 40
0.125
 40
0.25
 40
0.25
 40
0.25
 40
0.25
 40
0.375
 40
0.375
 40
0.375
 40
0.375
 40
0.5
 40
0.5
 40
0.5
 40
0.5
 40
0.625
 40
0.625
 40
0.625
 40
0.625
 40
0.75
 40
0.75
 40
0.75
 40
0.75
 40
1.0
 40
1.0
 40
1.0
 40
1.0
 10
-28.7279
 20
7.1412
 30
0.0
 10
-28.7279
 20
7.1412
 30
0.0
 10
-28.7391
 20
7.2627
 30
0.0
 10
-28.7391
 20
7.2627
 30
0.0
 10
-28.7391
 20
7.2627
 30
0.0
 10
-28.7391
 20
7.2627
 30
0.0
 10
-28.7722
 20
7.3772
 30
0.0
 10
-28.7722
 20
7.3772
 30
0.0
 10
-28.7722
 20
7.3772
 30
0.0
 10
-28.7722
 20
7.3772
 30
0.0
 10
-28.8247
 20
7.4782
 30
0.0
 10
-28.8247
 20
7.4782
 30
0.0
 10
-28.8247
 20
7.4782
 30
0.0
 10
-28.8247
 20
7.4782
 30
0.0
 10
-28.8932
 20
7.5595
 30
0.0
 10
-28.8932
 20
7.5595
 30
0.0
 10
-28.8932
 20
7.5595
 30
0.0
 10
-28.8932
 20
7.5595
 30
0.0
 10
-28.9728
 20
7.6165
 30
0.0
 10
-28.9728
 20
7.6165
 30
0.0
 10
-28.9728
 20
7.6165
 30
0.0
 10
-28.9728
 20
7.6165
 30
0.0
 10
-29.0585
 20
7.6458
 30
0.0
 10
-29.0585
 20
7.6458
 30
0.0
 10
-29.0585
 20
7.6458
 30
0.0
 10
-29.0585
 20
7.6458
 30
0.0
 10
-29.102
 20
7.6494
 30
0.0
 10
-29.102
 20
7.6494
 30
0.0
  0
SPLINE
  5
D1
330
1F
100
AcDbEntity
  8
VRSTVA_1
 62
   250
100
AcDbSpline
210
0.0
220
0.0
230
1.0
 70
     8
 71
     3
 72
    32
 73
    28
 74
     0
 42
0.0000000001
 43
0.0000000001
 40
0.0
 40
0.0
 40
0.0
 40
0.0
 40
0.125
 40
0.125
 40
0.125
 40
0.125
 40
0.25
 40
0.25
 40
0.25
 40
0.25
 40
0.375
 40
0.375
 40
0.375
 40
0.375
 40
0.5
 40
0.5
 40
0.5
 40
0.5
 40
0.625
 40
0.625
 40
0.625
 40
0.625
 40
0.75
 40
0.75
 40
0.75
 40
0.75
 40
1.0
 40
1.0
 40
1.0
 40
1.0
 10
-9.4956
 20
-0.7825
 30
0.0
 10
-9.4956
 20
-0.7825
 30
0.0
 10
-9.3741
 20
-0.7712
 30
0.0
 10
-9.3741
 20
-0.7712
 30
0.0
 10
-9.3741
 20
-0.7712
 30
0.0
 10
-9.3741
 20
-0.7712
 30
0.0
 10
-9.2596
 20
-0.7382
 30
0.0
 10
-9.2596
 20
-0.7382
 30
0.0
 10
-9.2596
 20
-0.7382
 30
0.0
 10
-9.2596
 20
-0.7382
 30
0.0
 10
-9.1586
 20
-0.6856
 30
0.0
 10
-9.1586
 20
-0.6856
 30
0.0
 10
-9.1586
 20
-0.6856
 30
0.0
 10
-9.1586
 20
-0.6856
 30
0.0
 10
-9.0773
 20
-0.6172
 30
0.0
 10
-9.0773
 20
-0.6172
 30
0.0
 10
-9.0773
 20
-0.6172
 30
0.0
 10
-9.0773
 20
-0.6172
 30
0.0
 10
-9.0203
 20
-0.5375
 30
0.0
 10
-9.0203
 20
-0.5375
 30
0.0
 10
-9.0203
 20
-0.5375
 30
0.0
 10
-9.0203
 20
-0.5375
 30
0.0
 10
-8.991
 20
-0.4518
 30
0.0
 10
-8.991
 20
-0.4518
 30
0.0
 10
-8.991
 20
-0.4518
 30
0.0
 10
-8.991
 20
-0.4518
 30
0.0
 10
-8.9874
 20
-0.4084
 30
0.0
 10
-8.9874
 20
-0.4084
 30
0.0
  0
SPLINE
  5
D2
330
1F
100
AcDbEntity
  8
VRSTVA_1
 62
   250
100
AcDbSpline
210
0.0
220
0.0
230
1.0
 70
     8
 71
     3
 72
    32
 73
    28
 74
     0
 42
0.0000000001
 43
0.0000000001
 40
0.0
 40
0.0
 40
0.0
 40
0.0
 40
0.125
 40
0.125
 40
0.125
 40
0.125
 40
0.25
 40
0.25
 40
0.25
 40
0.25
 40
0.375
 40
0.375
 40
0.375
 40
0.375
 40
0.5
 40
0.5
 40
0.5
 40
0.5
 40
0.625
 40
0.625
 40
0.625
 40
0.625
 40
0.75
 40
0.75
 40
0.75
 40
0.75
 40
1.0
 40
1.0
 40
1.0
 40
1.0
 10
-20.6706
 20
7.1412
 30
0.0
 10
-20.6706
 20
7.1412
 30
0.0
 10
-20.6594
 20
7.2627
 30
0.0
 10
-20.6594
 20
7.2627
 30
0.0
 10
-20.6594
 20
7.2627
 30
0.0
 10
-20.6594
 20
7.2627
 30
0.0
 10
-20.6264
 20
7.3772
 30
0.0
 10
-20.6264
 20
7.3772
 30
0.0
 10
-20.6264
 20
7.3772
 30
0.0
 10
-20.6264
 20
7.3772
 30
0.0
 10
-20.5738
 20
7.4782
 30
0.0
 10
-20.5738
 20
7.4782
 30
0.0
 10
-20.5738
 20
7.4782
 30
0.0
 10
-20.5738
 20
7.4782
 30
0.0
 10
-20.5054
 20
7.5595
 30
0.0
 10
-20.5054
 20
7.5595
 30
0.0
 10
-20.5054
 20
7.5595
 30
0.0
 10
-20.5054
 20
7.5595
 30
0.0
 10
-20.4258
 20
7.6165
 30
0.0
 10
-20.4258
 20
7.6165
 30
0.0
 10
-20.4258
 20
7.6165
 30
0.0
 10
-20.4258
 20
7.6165
 30
0.0
 10
-20.3401
 20
7.6458
 30
0.0
 10
-20.3401
 20
7.6458
 30
0.0
 10
-20.3401
 20
7.6458
 30
0.0
 10
-20.3401
 20
7.6458
 30
0.0
 10
-20.2965
 20
7.6494
 30
0.0
 10
-20.2965
 20
7.6494
 30
0.0
  0
SPLINE
  5
D3
330
1F
100
AcDbEntity
  8
VRSTVA_1
 62
   250
100
AcDbSpline
210
0.0
220
0.0
230
1.0
 70
     8
 71
     3
 72
    32
 73
    28
 74
     0
 42
0.0000000001
 43
0.0000000001
 40
0.0
 40
0.0
 40
0.0
 40
0.0
 40
0.125
 40
0.125
 40
0.125
 40
0.125
 40
0.25
 40
0.25
 40
0.25
 40
0.25
 40
0.375
 40
0.375
 40
0.375
 40
0.375
 40
0.5
 40
0.5
 40
0.5
 40
0.5
 40
0.625
 40
0.625
 40
0.625
 40
0.625
 40
0.75
 40
0.75
 40
0.75
 40
0.75
 40
1.0
 40
1.0
 40
1.0
 40
1.0
 10
-9.4956
 20
-8.8397
 30
0.0
 10
-9.4956
 20
-8.8397
 30
0.0
 10
-9.3741
 20
-8.851
 30
0.0
 10
-9.3741
 20
-8.851
 30
0.0
 10
-9.3741
 20
-8.851
 30
0.0
 10
-9.3741
 20
-8.851
 30
0.0
 10
-9.2596
 20
-8.884
 30
0.0
 10
-9.2596
 20
-8.884
 30
0.0
 10
-9.2596
 20
-8.884
 30
0.0
 10
-9.2596
 20
-8.884
 30
0.0
 10
-9.1586
 20
-8.9366
 30
0.0
 10
-9.1586
 20
-8.9366
 30
0.0
 10
-9.1586
 20
-8.9366
 30
0.0
 10
-9.1586
 20
-8.9366
 30
0.0
 10
-9.0773
 20
-9.005
 30
0.0
 10
-9.0773
 20
-9.005
 30
0.0
 10
-9.0773
 20
-9.005
 30
0.0
 10
-9.0773
 20
-9.005
 30
0.0
 10
-9.0203
 20
-9.0846
 30
0.0
 10
-9.0203
 20
-9.0846
 30
0.0
 10
-9.0203
 20
-9.0846
 30
0.0
 10
-9.0203
 20
-9.0846
 30
0.0
 10
-8.991
 20
-9.1703
 30
0.0
 10
-8.991
 20
-9.1703
 30
0.0
 10
-8.991
 20
-9.1703
 30
0.0
 10
-8.991
 20
-9.1703
 30
0.0
 10
-8.9874
 20
-9.2138
 30
0.0
 10
-8.9874
 20
-9.2138
 30
0.0
  0
SPLINE
  5
D4
330
1F
100
AcDbEntity
  8
VRSTVA_1
 62
   250
100
AcDbSpline
210
0.0
220
0.0
230
1.0
 70
     8
 71
     3
 72
    32
 73
    28
 74
     0
 42
0.0000000001
 43
0.0000000001
 40
0.0
 40
0.0
 40
0.0
 40
0.0
 40
0.125
 40
0.125
 40
0.125
 40
0.125
 40
0.25
 40
0.25
 40
0.25
 40
0.25
 40
0.375
 40
0.375
 40
0.375
 40
0.375
 40
0.5
 40
0.5
 40
0.5
 40
0.5
 40
0.625
 40
0.625
 40
0.625
 40
0.625
 40
0.75
 40
0.75
 40
0.75
 40
0.75
 40
1.0
 40
1.0
 40
1.0
 40
1.0
 10
-18.6
 20
7.6495
 30
0.0
 10
-18.6
 20
7.6495
 30
0.0
 10
-18.601
 20
7.6369
 30
0.0
 10
-18.601
 20
7.6369
 30
0.0
 10
-18.601
 20
7.6369
 30
0.0
 10
-18.601
 20
7.6369
 30
0.0
 10
-18.604
 20
7.5989
 30
0.0
 10
-18.604
 20
7.5989
 30
0.0
 10
-18.604
 20
7.5989
 30
0.0
 10
-18.604
 20
7.5989
 30
0.0
 10
-18.6082
 20
7.538
 30
0.0
 10
-18.6082
 20
7.538
 30
0.0
 10
-18.6082
 20
7.538
 30
0.0
 10
-18.6082
 20
7.538
 30
0.0
 10
-18.6129
 20
7.4588
 30
0.0
 10
-18.6129
 20
7.4588
 30
0.0
 10
-18.6129
 20
7.4588
 30
0.0
 10
-18.6129
 20
7.4588
 30
0.0
 10
-18.6171
 20
7.3623
 30
0.0
 10
-18.6171
 20
7.3623
 30
0.0
 10
-18.6171
 20
7.3623
 30
0.0
 10
-18.6171
 20
7.3623
 30
0.0
 10
-18.6201
 20
7.2533
 30
0.0
 10
-18.6201
 20
7.2533
 30
0.0
 10
-18.6201
 20
7.2533
 30
0.0
 10
-18.6201
 20
7.2533
 30
0.0
 10
-18.6212
 20
7.1412
 30
0.0
 10
-18.6212
 20
7.1412
 30
0.0
  0
SPLINE
  5
D5
330
1F
100
AcDbEntity
  8
VRSTVA_1
 62
   250
100
AcDbSpline
210
0.0
220
0.0
230
1.0
 70
     8
 71
     3
 72
    32
 73
    28
 74
     0
 42
0.0000000001
 43
0.0000000001
 40
0.0
 40
0.0
 40
0.0
 40
0.0
 40
0.125
 40
0.125
 40
0.125
 40
0.125
 40
0.25
 40
0.25
 40
0.25
 40
0.25
 40
0.375
 40
0.375
 40
0.375
 40
0.375
 40
0.5
 40
0.5
 40
0.5
 40
0.5
 40
0.625
 40
0.625
 40
0.625
 40
0.625
 40
0.75
 40
0.75
 40
0.75
 40
0.75
 40
1.0
 40
1.0
 40
1.0
 40
1.0
 10
-8.9873
 20
-10.9104
 30
0.0
 10
-8.9873
 20
-10.9104
 30
0.0
 10
-8.9999
 20
-10.9094
 30
0.0
 10
-8.9999
 20
-10.9094
 30
0.0
 10
-8.9999
 20
-10.9094
 30
0.0
 10
-8.9999
 20
-10.9094
 30
0.0
 10
-9.0378
 20
-10.9064
 30
0.0
 10
-9.0378
 20
-10.9064
 30
0.0
 10
-9.0378
 20
-10.9064
 30
0.0
 10
-9.0378
 20
-10.9064
 30
0.0
 10
-9.0988
 20
-10.9021
 30
0.0
 10
-9.0988
 20
-10.9021
 30
0.0
 10
-9.0988
 20
-10.9021
 30
0.0
 10
-9.0988
 20
-10.9021
 30
0.0
 10
-9.178
 20
-10.8975
 30
0.0
 10
-9.178
 20
-10.8975
 30
0.0
 10
-9.178
 20
-10.8975
 30
0.0
 10
-9.178
 20
-10.8975
 30
0.0
 10
-9.2744
 20
-10.8932
 30
0.0
 10
-9.2744
 20
-10.8932
 30
0.0
 10
-9.2744
 20
-10.8932
 30
0.0
 10
-9.2744
 20
-10.8932
 30
0.0
 10
-9.3835
 20
-10.8903
 30
0.0
 10
-9.3835
 20
-10.8903
 30
0.0
 10
-9.3835
 20
-10.8903
 30
0.0
 10
-9.3835
 20
-10.8903
 30
0.0
 10
-9.4956
 20
-10.8892
 30
0.0
 10
-9.4956
 20
-10.8892
 30
0.0
  0
SPLINE
  5
D6
330
1F
100
AcDbEntity
  8
VRSTVA_1
 62
   250
100
AcDbSpline
210
0.0
220
0.0
230
1.0
 70
     8
 71
     3
 72
    28
 73
    24
 74
     0
 42
0.0000000001
 43
0.0000000001
 40
0.0
 40
0.0
 40
0.0
 40
0.0
 40
0.1428571428571428
 40
0.1428571428571428
 40
0.1428571428571428
 40
0.1428571428571428
 40
0.2857142857142857
 40
0.2857142857142857
 40
0.2857142857142857
 40
0.2857142857142857
 40
0.4285714285714285
 40
0.4285714285714285
 40
0.4285714285714285
 40
0.4285714285714285
 40
0.5714285714285714
 40
0.5714285714285714
 40
0.5714285714285714
 40
0.5714285714285714
 40
0.7142857142857143
 40
0.7142857142857143
 40
0.7142857142857143
 40
0.7142857142857143
 40
1.0
 40
1.0
 40
1.0
 40
1.0
 10
-16.4446
 20
-24.8803
 30
0.0
 10
-16.4446
 20
-24.8803
 30
0.0
 10
-16.3524
 20
-24.863
 30
0.0
 10
-16.3524
 20
-24.863
 30
0.0
 10
-16.3524
 20
-24.863
 30
0.0
 10
-16.3524
 20
-24.863
 30
0.0
 10
-16.2678
 20
-24.8122
 30
0.0
 10
-16.2678
 20
-24.8122
 30
0.0
 10
-16.2678
 20
-24.8122
 30
0.0
 10
-16.2678
 20
-24.8122
 30
0.0
 10
-16.196
 20
-24.7314
 30
0.0
 10
-16.196
 20
-24.7314
 30
0.0
 10
-16.196
 20
-24.7314
 30
0.0
 10
-16.196
 20
-24.7314
 30
0.0
 10
-16.1416
 20
-24.6261
 30
0.0
 10
-16.1416
 20
-24.6261
 30
0.0
 10
-16.1416
 20
-24.6261
 30
0.0
 10
-16.1416
 20
-24.6261
 30
0.0
 10
-16.1078
 20
-24.5035
 30
0.0
 10
-16.1078
 20
-24.5035
 30
0.0
 10
-16.1078
 20
-24.5035
 30
0.0
 10
-16.1078
 20
-24.5035
 30
0.0
 10
-16.0963
 20
-24.372
 30
0.0
 10
-16.0963
 20
-24.372
 30
0.0
  0
SPLINE
  5
D7
330
1F
100
AcDbEntity
  8
VRSTVA_1
 62
   250
100
AcDbSpline
210
0.0
220
0.0
230
1.0
 70
     8
 71
     3
 72
    28
 73
    24
 74
     0
 42
0.0000000001
 43
0.0000000001
 40
0.0
 40
0.0
 40
0.0
 40
0.0
 40
0.1428571428571428
 40
0.1428571428571428
 40
0.1428571428571428
 40
0.1428571428571428
 40
0.2857142857142857
 40
0.2857142857142857
 40
0.2857142857142857
 40
0.2857142857142857
 40
0.4285714285714285
 40
0.4285714285714285
 40
0.4285714285714285
 40
0.4285714285714285
 40
0.5714285714285714
 40
0.5714285714285714
 40
0.5714285714285714
 40
0.5714285714285714
 40
0.7142857142857143
 40
0.7142857142857143
 40
0.7142857142857143
 40
0.7142857142857143
 40
1.0
 40
1.0
 40
1.0
 40
1.0
 10
-28.1253
 20
-24.8803
 30
0.0
 10
-28.1253
 20
-24.8803
 30
0.0
 10
-28.2173
 20
-24.863
 30
0.0
 10
-28.2173
 20
-24.863
 30
0.0
 10
-28.2173
 20
-24.863
 30
0.0
 10
-28.2173
 20
-24.863
 30
0.0
 10
-28.3021
 20
-24.8123
 30
0.0
 10
-28.3021
 20
-24.8123
 30
0.0
 10
-28.3021
 20
-24.8123
 30
0.0
 10
-28.3021
 20
-24.8123
 30
0.0
 10
-28.3738
 20
-24.7315
 30
0.0
 10
-28.3738
 20
-24.7315
 30
0.0
 10
-28.3738
 20
-24.7315
 30
0.0
 10
-28.3738
 20
-24.7315
 30
0.0
 10
-28.4283
 20
-24.6261
 30
0.0
 10
-28.4283
 20
-24.6261
 30
0.0
 10
-28.4283
 20
-24.6261
 30
0.0
 10
-28.4283
 20
-24.6261
 30
0.0
 10
-28.4621
 20
-24.5035
 30
0.0
 10
-28.4621
 20
-24.5035
 30
0.0
 10
-28.4621
 20
-24.5035
 30
0.0
 10
-28.4621
 20
-24.5035
 30
0.0
 10
-28.4736
 20
-24.372
 30
0.0
 10
-28.4736
 20
-24.372
 30
0.0
  0
SPLINE
  5
D8
330
1F
100
AcDbEntity
  8
VRSTVA_1
 62
   250
100
AcDbSpline
210
0.0
220
0.0
230
1.0
 70
    24
 71
     3
 72
     8
 73
     4
 74
     0
 42
0.0000000001
 43
0.0000000001
 40
0.0
 40
0.0
 40
0.0
 40
0.0
 40
1.0
 40
1.0
 40
1.0
 40
1.0
 10
-30.4174
 20
-24.8803
 30
0.0
 10
-30.4174
 20
-24.8803
 30
0.0
 10
-30.4163
 20
-24.8621
 30
0.0
 10
-30.4163
 20
-24.8621
 30
0.0
  0
SPLINE
  5
D9
330
1F
100
AcDbEntity
  8
VRSTVA_1
 62
   250
100
AcDbSpline
210
0.0
220
0.0
230
1.0
 70
     8
 71
     3
 72
    24
 73
    20
 74
     0
 42
0.0000000001
 43
0.0000000001
 40
0.0
 40
0.0
 40
0.0
 40
0.0
 40
0.1666666666666667
 40
0.1666666666666667
 40
0.1666666666666667
 40
0.1666666666666667
 40
0.3333333333333333
 40
0.3333333333333333
 40
0.3333333333333333
 40
0.3333333333333333
 40
0.5
 40
0.5
 40
0.5
 40
0.5
 40
0.6666666666666666
 40
0.6666666666666666
 40
0.6666666666666666
 40
0.6666666666666666
 40
1.0
 40
1.0
 40
1.0
 40
1.0
 10
-30.4163
 20
-24.8621
 30
0.0
 10
-30.4163
 20
-24.8621
 30
0.0
 10
-30.4133
 20
-24.8103
 30
0.0
 10
-30.4133
 20
-24.8103
 30
0.0
 10
-30.4133
 20
-24.8103
 30
0.0
 10
-30.4133
 20
-24.8103
 30
0.0
 10
-30.4093
 20
-24.7292
 30
0.0
 10
-30.4093
 20
-24.7292
 30
0.0
 10
-30.4093
 20
-24.7292
 30
0.0
 10
-30.4093
 20
-24.7292
 30
0.0
 10
-30.4054
 20
-24.6241
 30
0.0
 10
-30.4054
 20
-24.6241
 30
0.0
 10
-30.4054
 20
-24.6241
 30
0.0
 10
-30.4054
 20
-24.6241
 30
0.0
 10
-30.4025
 20
-24.502
 30
0.0
 10
-30.4025
 20
-24.502
 30
0.0
 10
-30.4025
 20
-24.502
 30
0.0
 10
-30.4025
 20
-24.502
 30
0.0
 10
-30.4015
 20
-24.372
 30
0.0
 10
-30.4015
 20
-24.372
 30
0.0
  0
SPLINE
  5
DA
330
1F
100
AcDbEntity
  8
VRSTVA_1
 62
   250
100
AcDbSpline
210
0.0
220
0.0
230
1.0
 70
     8
 71
     3
 72
    24
 73
    20
 74
     0
 42
0.0000000001
 43
0.0000000001
 40
0.0
 40
0.0
 40
0.0
 40
0.0
 40
0.1666666666666667
 40
0.1666666666666667
 40
0.1666666666666667
 40
0.1666666666666667
 40
0.3333333333333333
 40
0.3333333333333333
 40
0.3333333333333333
 40
0.3333333333333333
 40
0.5
 40
0.5
 40
0.5
 40
0.5
 40
0.6666666666666666
 40
0.6666666666666666
 40
0.6666666666666666
 40
0.6666666666666666
 40
1.0
 40
1.0
 40
1.0
 40
1.0
 10
-27.7548
 20
-24.372
 30
0.0
 10
-27.7548
 20
-24.372
 30
0.0
 10
-27.7678
 20
-24.5034
 30
0.0
 10
-27.7678
 20
-24.5034
 30
0.0
 10
-27.7678
 20
-24.5034
 30
0.0
 10
-27.7678
 20
-24.5034
 30
0.0
 10
-27.8057
 20
-24.6259
 30
0.0
 10
-27.8057
 20
-24.6259
 30
0.0
 10
-27.8057
 20
-24.6259
 30
0.0
 10
-27.8057
 20
-24.6259
 30
0.0
 10
-27.8655
 20
-24.7313
 30
0.0
 10
-27.8655
 20
-24.7313
 30
0.0
 10
-27.8655
 20
-24.7313
 30
0.0
 10
-27.8655
 20
-24.7313
 30
0.0
 10
-27.9427
 20
-24.8121
 30
0.0
 10
-27.9427
 20
-24.8121
 30
0.0
 10
-27.9427
 20
-24.8121
 30
0.0
 10
-27.9427
 20
-24.8121
 30
0.0
 10
-28.0314
 20
-24.8629
 30
0.0
 10
-28.0314
 20
-24.8629
 30
0.0
  0
SPLINE
  5
DB
330
1F
100
AcDbEntity
  8
VRSTVA_1
 62
   250
100
AcDbSpline
210
0.0
220
0.0
230
1.0
 70
     8
 71
     3
 72
    24
 73
    20
 74
     0
 42
0.0000000001
 43
0.0000000001
 40
0.0
 40
0.0
 40
0.0
 40
0.0
 40
0.1666666666666667
 40
0.1666666666666667
 40
0.1666666666666667
 40
0.1666666666666667
 40
0.3333333333333333
 40
0.3333333333333333
 40
0.3333333333333333
 40
0.3333333333333333
 40
0.5
 40
0.5
 40
0.5
 40
0.5
 40
0.6666666666666666
 40
0.6666666666666666
 40
0.6666666666666666
 40
0.6666666666666666
 40
1.0
 40
1.0
 40
1.0
 40
1.0
 10
-14.1684
 20
-24.372
 30
0.0
 10
-14.1684
 20
-24.372
 30
0.0
 10
-14.1674
 20
-24.5029
 30
0.0
 10
-14.1674
 20
-24.5029
 30
0.0
 10
-14.1674
 20
-24.5029
 30
0.0
 10
-14.1674
 20
-24.5029
 30
0.0
 10
-14.1645
 20
-24.6256
 30
0.0
 10
-14.1645
 20
-24.6256
 30
0.0
 10
-14.1645
 20
-24.6256
 30
0.0
 10
-14.1645
 20
-24.6256
 30
0.0
 10
-14.1605
 20
-24.7311
 30
0.0
 10
-14.1605
 20
-24.7311
 30
0.0
 10
-14.1605
 20
-24.7311
 30
0.0
 10
-14.1605
 20
-24.7311
 30
0.0
 10
-14.1565
 20
-24.8119
 30
0.0
 10
-14.1565
 20
-24.8119
 30
0.0
 10
-14.1565
 20
-24.8119
 30
0.0
 10
-14.1565
 20
-24.8119
 30
0.0
 10
-14.1536
 20
-24.8626
 30
0.0
 10
-14.1536
 20
-24.8626
 30
0.0
  0
SPLINE
  5
DC
330
1F
100
AcDbEntity
  8
VRSTVA_1
 62
   250
100
AcDbSpline
210
0.0
220
0.0
230
1.0
 70
    24
 71
     3
 72
     8
 73
     4
 74
     0
 42
0.0000000001
 43
0.0000000001
 40
0.0
 40
0.0
 40
0.0
 40
0.0
 40
1.0
 40
1.0
 40
1.0
 40
1.0
 10
-14.1536
 20
-24.8626
 30
0.0
 10
-14.1536
 20
-24.8626
 30
0.0
 10
-14.1526
 20
-24.8803
 30
0.0
 10
-14.1526
 20
-24.8803
 30
0.0
  0
SPLINE
  5
DD
330
1F
100
AcDbEntity
  8
VRSTVA_1
 62
   250
100
AcDbSpline
210
0.0
220
0.0
230
1.0
 70
     8
 71
     3
 72
    24
 73
    20
 74
     0
 42
0.0000000001
 43
0.0000000001
 40
0.0
 40
0.0
 40
0.0
 40
0.0
 40
0.1666666666666667
 40
0.1666666666666667
 40
0.1666666666666667
 40
0.1666666666666667
 40
0.3333333333333333
 40
0.3333333333333333
 40
0.3333333333333333
 40
0.3333333333333333
 40
0.5
 40
0.5
 40
0.5
 40
0.5
 40
0.6666666666666666
 40
0.6666666666666666
 40
0.6666666666666666
 40
0.6666666666666666
 40
1.0
 40
1.0
 40
1.0
 40
1.0
 10
-16.8151
 20
-24.372
 30
0.0
 10
-16.8151
 20
-24.372
 30
0.0
 10
-16.8021
 20
-24.5035
 30
0.0
 10
-16.8021
 20
-24.5035
 30
0.0
 10
-16.8021
 20
-24.5035
 30
0.0
 10
-16.8021
 20
-24.5035
 30
0.0
 10
-16.7642
 20
-24.6261
 30
0.0
 10
-16.7642
 20
-24.6261
 30
0.0
 10
-16.7642
 20
-24.6261
 30
0.0
 10
-16.7642
 20
-24.6261
 30
0.0
 10
-16.7043
 20
-24.7314
 30
0.0
 10
-16.7043
 20
-24.7314
 30
0.0
 10
-16.7043
 20
-24.7314
 30
0.0
 10
-16.7043
 20
-24.7314
 30
0.0
 10
-16.627
 20
-24.8122
 30
0.0
 10
-16.627
 20
-24.8122
 30
0.0
 10
-16.627
 20
-24.8122
 30
0.0
 10
-16.627
 20
-24.8122
 30
0.0
 10
-16.5383
 20
-24.863
 30
0.0
 10
-16.5383
 20
-24.863
 30
0.0
  0
SPLINE
  5
DE
330
1F
100
AcDbEntity
  8
VRSTVA_1
 62
   250
100
AcDbSpline
210
0.0
220
0.0
230
1.0
 70
     8
 71
     3
 72
    84
 73
    80
 74
     0
 42
0.0000000001
 43
0.0000000001
 40
0.0
 40
0.0
 40
0.0
 40
0.0
 40
0.0476190476190476
 40
0.0476190476190476
 40
0.0476190476190476
 40
0.0476190476190476
 40
0.0952380952380952
 40
0.0952380952380952
 40
0.0952380952380952
 40
0.0952380952380952
 40
0.1428571428571428
 40
0.1428571428571428
 40
0.1428571428571428
 40
0.1428571428571428
 40
0.1904761904761905
 40
0.1904761904761905
 40
0.1904761904761905
 40
0.1904761904761905
 40
0.2380952380952381
 40
0.2380952380952381
 40
0.2380952380952381
 40
0.2380952380952381
 40
0.2857142857142857
 40
0.2857142857142857
 40
0.2857142857142857
 40
0.2857142857142857
 40
0.3333333333333333
 40
0.3333333333333333
 40
0.3333333333333333
 40
0.3333333333333333
 40
0.3809523809523809
 40
0.3809523809523809
 40
0.3809523809523809
 40
0.3809523809523809
 40
0.4285714285714285
 40
0.4285714285714285
 40
0.4285714285714285
 40
0.4285714285714285
 40
0.4761904761904762
 40
0.4761904761904762
 40
0.4761904761904762
 40
0.4761904761904762
 40
0.5238095238095238
 40
0.5238095238095238
 40
0.5238095238095238
 40
0.5238095238095238
 40
0.5714285714285714
 40
0.5714285714285714
 40
0.5714285714285714
 40
0.5714285714285714
 40
0.6190476190476191
 40
0.6190476190476191
 40
0.6190476190476191
 40
0.6190476190476191
 40
0.6666666666666666
 40
0.6666666666666666
 40
0.6666666666666666
 40
0.6666666666666666
 40
0.7142857142857143
 40
0.7142857142857143
 40
0.7142857142857143
 40
0.7142857142857143
 40
0.7619047619047619
 40
0.7619047619047619
 40
0.7619047619047619
 40
0.7619047619047619
 40
0.8095238095238095
 40
0.8095238095238095
 40
0.8095238095238095
 40
0.8095238095238095
 40
0.8571428571428571
 40
0.8571428571428571
 40
0.8571428571428571
 40
0.8571428571428571
 40
0.9047619047619048
 40
0.9047619047619048
 40
0.9047619047619048
 40
0.9047619047619048
 40
1.0
 40
1.0
 40
1.0
 40
1.0
 10
-14.9404
 20
-0.0992
 30
0.0
 10
-14.9404
 20
-0.0992
 30
0.0
 10
-14.965
 20
-0.1353
 30
0.0
 10
-14.965
 20
-0.1353
 30
0.0
 10
-14.965
 20
-0.1353
 30
0.0
 10
-14.965
 20
-0.1353
 30
0.0
 10
-15.0616
 20
-0.2777
 30
0.0
 10
-15.0616
 20
-0.2777
 30
0.0
 10
-15.0616
 20
-0.2777
 30
0.0
 10
-15.0616
 20
-0.2777
 30
0.0
 10
-15.2474
 20
-0.5575
 30
0.0
 10
-15.2474
 20
-0.5575
 30
0.0
 10
-15.2474
 20
-0.5575
 30
0.0
 10
-15.2474
 20
-0.5575
 30
0.0
 10
-15.5091
 20
-0.9673
 30
0.0
 10
-15.5091
 20
-0.9673
 30
0.0
 10
-15.5091
 20
-0.9673
 30
0.0
 10
-15.5091
 20
-0.9673
 30
0.0
 10
-15.8143
 20
-1.4769
 30
0.0
 10
-15.8143
 20
-1.4769
 30
0.0
 10
-15.8143
 20
-1.4769
 30
0.0
 10
-15.8143
 20
-1.4769
 30
0.0
 10
-16.1293
 20
-2.058
 30
0.0
 10
-16.1293
 20
-2.058
 30
0.0
 10
-16.1293
 20
-2.058
 30
0.0
 10
-16.1293
 20
-2.058
 30
0.0
 10
-16.4209
 20
-2.6863
 30
0.0
 10
-16.4209
 20
-2.6863
 30
0.0
 10
-16.4209
 20
-2.6863
 30
0.0
 10
-16.4209
 20
-2.6863
 30
0.0
 10
-16.6587
 20
-3.3424
 30
0.0
 10
-16.6587
 20
-3.3424
 30
0.0
 10
-16.6587
 20
-3.3424
 30
0.0
 10
-16.6587
 20
-3.3424
 30
0.0
 10
-16.8203
 20
-4.0306
 30
0.0
 10
-16.8203
 20
-4.0306
 30
0.0
 10
-16.8203
 20
-4.0306
 30
0.0
 10
-16.8203
 20
-4.0306
 30
0.0
 10
-16.8799
 20
-4.7544
 30
0.0
 10
-16.8799
 20
-4.7544
 30
0.0
 10
-16.8799
 20
-4.7544
 30
0.0
 10
-16.8799
 20
-4.7544
 30
0.0
 10
-16.8208
 20
-5.4793
 30
0.0
 10
-16.8208
 20
-5.4793
 30
0.0
 10
-16.8208
 20
-5.4793
 30
0.0
 10
-16.8208
 20
-5.4793
 30
0.0
 10
-16.659
 20
-6.1699
 30
0.0
 10
-16.659
 20
-6.1699
 30
0.0
 10
-16.659
 20
-6.1699
 30
0.0
 10
-16.659
 20
-6.1699
 30
0.0
 10
-16.4205
 20
-6.8276
 30
0.0
 10
-16.4205
 20
-6.8276
 30
0.0
 10
-16.4205
 20
-6.8276
 30
0.0
 10
-16.4205
 20
-6.8276
 30
0.0
 10
-16.1281
 20
-7.4572
 30
0.0
 10
-16.1281
 20
-7.4572
 30
0.0
 10
-16.1281
 20
-7.4572
 30
0.0
 10
-16.1281
 20
-7.4572
 30
0.0
 10
-15.8131
 20
-8.0383
 30
0.0
 10
-15.8131
 20
-8.0383
 30
0.0
 10
-15.8131
 20
-8.0383
 30
0.0
 10
-15.8131
 20
-8.0383
 30
0.0
 10
-15.5084
 20
-8.5468
 30
0.0
 10
-15.5084
 20
-8.5468
 30
0.0
 10
-15.5084
 20
-8.5468
 30
0.0
 10
-15.5084
 20
-8.5468
 30
0.0
 10
-15.2478
 20
-8.9549
 30
0.0
 10
-15.2478
 20
-8.9549
 30
0.0
 10
-15.2478
 20
-8.9549
 30
0.0
 10
-15.2478
 20
-8.9549
 30
0.0
 10
-15.0622
 20
-9.2344
 30
0.0
 10
-15.0622
 20
-9.2344
 30
0.0
 10
-15.0622
 20
-9.2344
 30
0.0
 10
-15.0622
 20
-9.2344
 30
0.0
 10
-14.9653
 20
-9.3773
 30
0.0
 10
-14.9653
 20
-9.3773
 30
0.0
 10
-14.9653
 20
-9.3773
 30
0.0
 10
-14.9653
 20
-9.3773
 30
0.0
 10
-14.9404
 20
-9.4138
 30
0.0
 10
-14.9404
 20
-9.4138
 30
0.0
  0
SPLINE
  5
DF
330
1F
100
AcDbEntity
  8
VRSTVA_1
 62
   250
100
AcDbSpline
210
0.0
220
0.0
230
1.0
 70
     8
 71
     3
 72
    68
 73
    64
 74
     0
 42
0.0000000001
 43
0.0000000001
 40
0.0
 40
0.0
 40
0.0
 40
0.0
 40
0.0588235294117647
 40
0.0588235294117647
 40
0.0588235294117647
 40
0.0588235294117647
 40
0.1176470588235294
 40
0.1176470588235294
 40
0.1176470588235294
 40
0.1176470588235294
 40
0.1764705882352941
 40
0.1764705882352941
 40
0.1764705882352941
 40
0.1764705882352941
 40
0.2352941176470588
 40
0.2352941176470588
 40
0.2352941176470588
 40
0.2352941176470588
 40
0.2941176470588235
 40
0.2941176470588235
 40
0.2941176470588235
 40
0.2941176470588235
 40
0.3529411764705883
 40
0.3529411764705883
 40
0.3529411764705883
 40
0.3529411764705883
 40
0.4117647058823529
 40
0.4117647058823529
 40
0.4117647058823529
 40
0.4117647058823529
 40
0.4705882352941176
 40
0.4705882352941176
 40
0.4705882352941176
 40
0.4705882352941176
 40
0.5294117647058824
 40
0.5294117647058824
 40
0.5294117647058824
 40
0.5294117647058824
 40
0.5882352941176471
 40
0.5882352941176471
 40
0.5882352941176471
 40
0.5882352941176471
 40
0.6470588235294118
 40
0.6470588235294118
 40
0.6470588235294118
 40
0.6470588235294118
 40
0.7058823529411765
 40
0.7058823529411765
 40
0.7058823529411765
 40
0.7058823529411765
 40
0.7647058823529411
 40
0.7647058823529411
 40
0.7647058823529411
 40
0.7647058823529411
 40
0.8235294117647058
 40
0.8235294117647058
 40
0.8235294117647058
 40
0.8235294117647058
 40
0.8823529411764706
 40
0.8823529411764706
 40
0.8823529411764706
 40
0.8823529411764706
 40
1.0
 40
1.0
 40
1.0
 40
1.0
 10
-28.7452
 20
1.5431
 30
0.0
 10
-28.7452
 20
1.5431
 30
0.0
 10
-28.3389
 20
1.5647
 30
0.0
 10
-28.3389
 20
1.5647
 30
0.0
 10
-28.3389
 20
1.5647
 30
0.0
 10
-28.3389
 20
1.5647
 30
0.0
 10
-27.8328
 20
1.5917
 30
0.0
 10
-27.8328
 20
1.5917
 30
0.0
 10
-27.8328
 20
1.5917
 30
0.0
 10
-27.8328
 20
1.5917
 30
0.0
 10
-27.2402
 20
1.6233
 30
0.0
 10
-27.2402
 20
1.6233
 30
0.0
 10
-27.2402
 20
1.6233
 30
0.0
 10
-27.2402
 20
1.6233
 30
0.0
 10
-26.5781
 20
1.6586
 30
0.0
 10
-26.5781
 20
1.6586
 30
0.0
 10
-26.5781
 20
1.6586
 30
0.0
 10
-26.5781
 20
1.6586
 30
0.0
 10
-25.8636
 20
1.6966
 30
0.0
 10
-25.8636
 20
1.6966
 30
0.0
 10
-25.8636
 20
1.6966
 30
0.0
 10
-25.8636
 20
1.6966
 30
0.0
 10
-25.1123
 20
1.7365
 30
0.0
 10
-25.1123
 20
1.7365
 30
0.0
 10
-25.1123
 20
1.7365
 30
0.0
 10
-25.1123
 20
1.7365
 30
0.0
 10
-24.3466
 20
1.7772
 30
0.0
 10
-24.3466
 20
1.7772
 30
0.0
 10
-24.3466
 20
1.7772
 30
0.0
 10
-24.3466
 20
1.7772
 30
0.0
 10
-23.5972
 20
1.817
 30
0.0
 10
-23.5972
 20
1.817
 30
0.0
 10
-23.5972
 20
1.817
 30
0.0
 10
-23.5972
 20
1.817
 30
0.0
 10
-22.8811
 20
1.855
 30
0.0
 10
-22.8811
 20
1.855
 30
0.0
 10
-22.8811
 20
1.855
 30
0.0
 10
-22.8811
 20
1.855
 30
0.0
 10
-22.2073
 20
1.8907
 30
0.0
 10
-22.2073
 20
1.8907
 30
0.0
 10
-22.2073
 20
1.8907
 30
0.0
 10
-22.2073
 20
1.8907
 30
0.0
 10
-21.6029
 20
1.9226
 30
0.0
 10
-21.6029
 20
1.9226
 30
0.0
 10
-21.6029
 20
1.9226
 30
0.0
 10
-21.6029
 20
1.9226
 30
0.0
 10
-21.0903
 20
1.9498
 30
0.0
 10
-21.0903
 20
1.9498
 30
0.0
 10
-21.0903
 20
1.9498
 30
0.0
 10
-21.0903
 20
1.9498
 30
0.0
 10
-20.677
 20
1.9716
 30
0.0
 10
-20.677
 20
1.9716
 30
0.0
 10
-20.677
 20
1.9716
 30
0.0
 10
-20.677
 20
1.9716
 30
0.0
 10
-20.3728
 20
1.9877
 30
0.0
 10
-20.3728
 20
1.9877
 30
0.0
 10
-20.3728
 20
1.9877
 30
0.0
 10
-20.3728
 20
1.9877
 30
0.0
 10
-20.1872
 20
1.9975
 30
0.0
 10
-20.1872
 20
1.9975
 30
0.0
 10
-20.1872
 20
1.9975
 30
0.0
 10
-20.1872
 20
1.9975
 30
0.0
 10
-20.1248
 20
2.0008
 30
0.0
 10
-20.1248
 20
2.0008
 30
0.0
  0
SPLINE
  5
E0
330
1F
100
AcDbEntity
  8
VRSTVA_1
 62
   250
100
AcDbSpline
210
0.0
220
0.0
230
1.0
 70
     8
 71
     3
 72
    20
 73
    16
 74
     0
 42
0.0000000001
 43
0.0000000001
 40
0.0
 40
0.0
 40
0.0
 40
0.0
 40
0.2
 40
0.2
 40
0.2
 40
0.2
 40
0.4
 40
0.4
 40
0.4
 40
0.4
 40
0.6
 40
0.6
 40
0.6
 40
0.6
 40
1.0
 40
1.0
 40
1.0
 40
1.0
 10
-29.2738
 20
1.4853
 30
0.0
 10
-29.2738
 20
1.4853
 30
0.0
 10
-29.2399
 20
1.4909
 30
0.0
 10
-29.2399
 20
1.4909
 30
0.0
 10
-29.2399
 20
1.4909
 30
0.0
 10
-29.2399
 20
1.4909
 30
0.0
 10
-29.139
 20
1.5059
 30
0.0
 10
-29.139
 20
1.5059
 30
0.0
 10
-29.139
 20
1.5059
 30
0.0
 10
-29.139
 20
1.5059
 30
0.0
 10
-28.9732
 20
1.5255
 30
0.0
 10
-28.9732
 20
1.5255
 30
0.0
 10
-28.9732
 20
1.5255
 30
0.0
 10
-28.9732
 20
1.5255
 30
0.0
 10
-28.7452
 20
1.5431
 30
0.0
 10
-28.7452
 20
1.5431
 30
0.0
  0
SPLINE
  5
E1
330
1F
100
AcDbEntity
  8
VRSTVA_1
  6
NEW_LINE2
 62
   250
100
AcDbSpline
210
0.0
220
0.0
230
1.0
 70
    24
 71
     3
 72
     8
 73
     4
 74
     0
 42
0.0000000001
 43
0.0000000001
 40
0.0
 40
0.0
 40
0.0
 40
0.0
 40
1.0
 40
1.0
 40
1.0
 40
1.0
 10
-22.285
 20
-4.1163
 30
0.0
 10
-22.285
 20
-4.1163
 30
0.0
 10
-22.285
 20
-33.7751
 30
0.0
 10
-22.285
 20
-33.7751
 30
0.0
  0
SPLINE
  5
E3
330
1F
100
AcDbEntity
  8
VRSTVA_1
 62
   250
100
AcDbSpline
210
0.0
220
0.0
230
1.0
 70
    24
 71
     3
 72
     8
 73
     4
 74
     0
 42
0.0000000001
 43
0.0000000001
 40
0.0
 40
0.0
 40
0.0
 40
0.0
 40
1.0
 40
1.0
 40
1.0
 40
1.0
 10
24.449
 20
-12.7441
 30
0.0
 10
24.449
 20
-12.7441
 30
0.0
 10
25.5651
 20
-12.7441
 30
0.0
 10
25.5651
 20
-12.7441
 30
0.0
  0
SPLINE
  5
E4
330
1F
100
AcDbEntity
  8
VRSTVA_1
 62
   250
100
AcDbSpline
210
0.0
220
0.0
230
1.0
 70
    24
 71
     3
 72
     8
 73
     4
 74
     0
 42
0.0000000001
 43
0.0000000001
 40
0.0
 40
0.0
 40
0.0
 40
0.0
 40
1.0
 40
1.0
 40
1.0
 40
1.0
 10
24.449
 20
3.3276
 30
0.0
 10
24.449
 20
3.3276
 30
0.0
 10
25.5651
 20
3.3276
 30
0.0
 10
25.5651
 20
3.3276
 30
0.0
  0
SPLINE
  5
E5
330
1F
100
AcDbEntity
  8
VRSTVA_1
 62
   250
100
AcDbSpline
210
0.0
220
0.0
230
1.0
 70
    24
 71
     3
 72
     8
 73
     4
 74
     0
 42
0.0000000001
 43
0.0000000001
 40
0.0
 40
0.0
 40
0.0
 40
0.0
 40
1.0
 40
1.0
 40
1.0
 40
1.0
 10
25.5651
 20
-12.7441
 30
0.0
 10
25.5651
 20
-12.7441
 30
0.0
 10
26.1231
 20
-13.3021
 30
0.0
 10
26.1231
 20
-13.3021
 30
0.0
  0
SPLINE
  5
E6
330
1F
100
AcDbEntity
  8
VRSTVA_1
 62
   250
100
AcDbSpline
210
0.0
220
0.0
230
1.0
 70
    24
 71
     3
 72
     8
 73
     4
 74
     0
 42
0.0000000001
 43
0.0000000001
 40
0.0
 40
0.0
 40
0.0
 40
0.0
 40
1.0
 40
1.0
 40
1.0
 40
1.0
 10
20.4311
 20
-0.6903
 30
0.0
 10
20.4311
 20
-0.6903
 30
0.0
 10
20.4311
 20
-8.7262
 30
0.0
 10
20.4311
 20
-8.7262
 30
0.0
  0
SPLINE
  5
E7
330
1F
100
AcDbEntity
  8
VRSTVA_1
 62
   250
100
AcDbSpline
210
0.0
220
0.0
230
1.0
 70
    24
 71
     3
 72
     8
 73
     4
 74
     0
 42
0.0000000001
 43
0.0000000001
 40
0.0
 40
0.0
 40
0.0
 40
0.0
 40
1.0
 40
1.0
 40
1.0
 40
1.0
 10
25.5651
 20
3.3276
 30
0.0
 10
25.5651
 20
3.3276
 30
0.0
 10
26.1231
 20
3.8856
 30
0.0
 10
26.1231
 20
3.8856
 30
0.0
  0
SPLINE
  5
E8
330
1F
100
AcDbEntity
  8
VRSTVA_1
 62
   250
100
AcDbSpline
210
0.0
220
0.0
230
1.0
 70
    24
 71
     3
 72
     8
 73
     4
 74
     0
 42
0.0000000001
 43
0.0000000001
 40
0.0
 40
0.0
 40
0.0
 40
0.0
 40
1.0
 40
1.0
 40
1.0
 40
1.0
 10
25.5651
 20
3.3276
 30
0.0
 10
25.5651
 20
3.3276
 30
0.0
 10
25.5651
 20
-12.7441
 30
0.0
 10
25.5651
 20
-12.7441
 30
0.0
  0
SPLINE
  5
E9
330
1F
100
AcDbEntity
  8
VRSTVA_1
 62
   250
100
AcDbSpline
210
0.0
220
0.0
230
1.0
 70
    24
 71
     3
 72
     8
 73
     4
 74
     0
 42
0.0000000001
 43
0.0000000001
 40
0.0
 40
0.0
 40
0.0
 40
0.0
 40
1.0
 40
1.0
 40
1.0
 40
1.0
 10
26.1231
 20
3.8856
 30
0.0
 10
26.1231
 20
3.8856
 30
0.0
 10
26.1231
 20
-13.3021
 30
0.0
 10
26.1231
 20
-13.3021
 30
0.0
  0
SPLINE
  5
EA
330
1F
100
AcDbEntity
  8
VRSTVA_1
 62
   250
100
AcDbSpline
210
0.0
220
0.0
230
1.0
 70
     8
 71
     3
 72
     8
 73
     4
 74
     0
 42
0.0000000001
 43
0.0000000001
 40
0.0
 40
0.0
 40
0.0
 40
0.0
 40
1.0
 40
1.0
 40
1.0
 40
1.0
 10
24.449
 20
3.3276
 30
0.0
 10
22.23
 20
3.3276
 30
0.0
 10
20.4311
 20
1.5287
 30
0.0
 10
20.4311
 20
-0.6903
 30
0.0
  0
SPLINE
  5
EB
330
1F
100
AcDbEntity
  8
VRSTVA_1
 62
   250
100
AcDbSpline
210
0.0
220
0.0
230
1.0
 70
     8
 71
     3
 72
     8
 73
     4
 74
     0
 42
0.0000000001
 43
0.0000000001
 40
0.0
 40
0.0
 40
0.0
 40
0.0
 40
1.0
 40
1.0
 40
1.0
 40
1.0
 10
20.4311
 20
-8.7262
 30
0.0
 10
20.4311
 20
-10.9452
 30
0.0
 10
22.23
 20
-12.7441
 30
0.0
 10
24.449
 20
-12.7441
 30
0.0
  0
SPLINE
  5
EC
330
1F
100
AcDbEntity
  8
VRSTVA_1
  6
NEW_LINE3
 62
   250
100
AcDbSpline
210
0.0
220
0.0
230
1.0
 70
    24
 71
     3
 72
     8
 73
     4
 74
     0
 42
0.0000000001
 43
0.0000000001
 40
0.0
 40
0.0
 40
0.0
 40
0.0
 40
1.0
 40
1.0
 40
1.0
 40
1.0
 10
-24.9065
 20
-4.7746
 30
0.0
 10
-24.9065
 20
-4.7746
 30
0.0
 10
38.4468
 20
-4.7746
 30
0.0
 10
38.4468
 20
-4.7746
 30
0.0
  0
SPLINE
  5
EE
330
1F
100
AcDbEntity
  8
VRSTVA_1
 62
   250
100
AcDbSpline
210
0.0
220
0.0
230
1.0
 70
    27
 71
     3
 72
    12
 73
     8
 74
     0
 42
0.0000000001
 43
0.0000000001
 40
0.0
 40
0.0
 40
0.0
 40
0.0
 40
0.3333333333333333
 40
0.3333333333333333
 40
0.3333333333333333
 40
0.3333333333333333
 40
1.0
 40
1.0
 40
1.0
 40
1.0
 10
-8.4791
 20
-8.2797
 30
0.0
 10
-8.4791
 20
-8.2797
 30
0.0
 10
20.4311
 20
-8.2797
 30
0.0
 10
20.4311
 20
-8.2797
 30
0.0
 10
20.4311
 20
-8.2797
 30
0.0
 10
20.4311
 20
-8.2797
 30
0.0
 10
-8.4791
 20
-8.2797
 30
0.0
 10
-8.4791
 20
-8.2797
 30
0.0
  0
SPLINE
  5
EF
330
1F
100
AcDbEntity
  8
VRSTVA_1
 62
   250
100
AcDbSpline
210
0.0
220
0.0
230
1.0
 70
    27
 71
     3
 72
    12
 73
     8
 74
     0
 42
0.0000000001
 43
0.0000000001
 40
0.0
 40
0.0
 40
0.0
 40
0.0
 40
0.3333333333333333
 40
0.3333333333333333
 40
0.3333333333333333
 40
0.3333333333333333
 40
1.0
 40
1.0
 40
1.0
 40
1.0
 10
-8.4791
 20
-1.1368
 30
0.0
 10
-8.4791
 20
-1.1368
 30
0.0
 10
20.4311
 20
-1.1368
 30
0.0
 10
20.4311
 20
-1.1368
 30
0.0
 10
20.4311
 20
-1.1368
 30
0.0
 10
20.4311
 20
-1.1368
 30
0.0
 10
-8.4791
 20
-1.1368
 30
0.0
 10
-8.4791
 20
-1.1368
 30
0.0
  0
SPLINE
  5
F0
330
1F
100
AcDbEntity
  8
VRSTVA_1
 62
   250
100
AcDbSpline
210
0.0
220
0.0
230
1.0
 70
     8
 71
     3
 72
    16
 73
    12
 74
     0
 42
0.0000000001
 43
0.0000000001
 40
0.0
 40
0.0
 40
0.0
 40
0.0
 40
0.25
 40
0.25
 40
0.25
 40
0.25
 40
0.5
 40
0.5
 40
0.5
 40
0.5
 40
1.0
 40
1.0
 40
1.0
 40
1.0
 10
26.2348
 20
-1.1368
 30
0.0
 10
26.2348
 20
-1.1368
 30
0.0
 10
36.4364
 20
-1.1368
 30
0.0
 10
36.4364
 20
-1.1368
 30
0.0
 10
36.4364
 20
-1.1368
 30
0.0
 10
36.4364
 20
-1.1368
 30
0.0
 10
36.424
 20
-8.2753
 30
0.0
 10
36.424
 20
-8.2753
 30
0.0
 10
36.424
 20
-8.2753
 30
0.0
 10
36.424
 20
-8.2753
 30
0.0
 10
26.1858
 20
-8.2753
 30
0.0
 10
26.1858
 20
-8.2753
 30
0.0
  0
SPLINE
  5
F1
330
1F
100
AcDbEntity
  8
VRSTVA_1
 62
   250
100
AcDbSpline
210
0.0
220
0.0
230
1.0
 70
    24
 71
     3
 72
     8
 73
     4
 74
     0
 42
0.0000000001
 43
0.0000000001
 40
0.0
 40
0.0
 40
0.0
 40
0.0
 40
1.0
 40
1.0
 40
1.0
 40
1.0
 10
9.4141
 20
-13.2156
 30
0.0
 10
9.4141
 20
-13.2156
 30
0.0
 10
9.4141
 20
8.0173
 30
0.0
 10
9.4141
 20
8.0173
 30
0.0
  0
SPLINE
  5
F2
330
1F
100
AcDbEntity
  8
VRSTVA_1
 62
   250
100
AcDbSpline
210
0.0
220
0.0
230
1.0
 70
    11
 71
     3
 72
    84
 73
    80
 74
     0
 42
0.0000000001
 43
0.0000000001
 40
0.0
 40
0.0
 40
0.0
 40
0.0
 40
0.0476190476190476
 40
0.0476190476190476
 40
0.0476190476190476
 40
0.0476190476190476
 40
0.0952380952380952
 40
0.0952380952380952
 40
0.0952380952380952
 40
0.0952380952380952
 40
0.1428571428571428
 40
0.1428571428571428
 40
0.1428571428571428
 40
0.1428571428571428
 40
0.1904761904761905
 40
0.1904761904761905
 40
0.1904761904761905
 40
0.1904761904761905
 40
0.2380952380952381
 40
0.2380952380952381
 40
0.2380952380952381
 40
0.2380952380952381
 40
0.2857142857142857
 40
0.2857142857142857
 40
0.2857142857142857
 40
0.2857142857142857
 40
0.3333333333333333
 40
0.3333333333333333
 40
0.3333333333333333
 40
0.3333333333333333
 40
0.3809523809523809
 40
0.3809523809523809
 40
0.3809523809523809
 40
0.3809523809523809
 40
0.4285714285714285
 40
0.4285714285714285
 40
0.4285714285714285
 40
0.4285714285714285
 40
0.4761904761904762
 40
0.4761904761904762
 40
0.4761904761904762
 40
0.4761904761904762
 40
0.5238095238095238
 40
0.5238095238095238
 40
0.5238095238095238
 40
0.5238095238095238
 40
0.5714285714285714
 40
0.5714285714285714
 40
0.5714285714285714
 40
0.5714285714285714
 40
0.6190476190476191
 40
0.6190476190476191
 40
0.6190476190476191
 40
0.6190476190476191
 40
0.6666666666666666
 40
0.6666666666666666
 40
0.6666666666666666
 40
0.6666666666666666
 40
0.7142857142857143
 40
0.7142857142857143
 40
0.7142857142857143
 40
0.7142857142857143
 40
0.7619047619047619
 40
0.7619047619047619
 40
0.7619047619047619
 40
0.7619047619047619
 40
0.8095238095238095
 40
0.8095238095238095
 40
0.8095238095238095
 40
0.8095238095238095
 40
0.8571428571428571
 40
0.8571428571428571
 40
0.8571428571428571
 40
0.8571428571428571
 40
0.9047619047619048
 40
0.9047619047619048
 40
0.9047619047619048
 40
0.9047619047619048
 40
1.0
 40
1.0
 40
1.0
 40
1.0
 10
6.7234
 20
3.7404
 30
0.0
 10
6.7234
 20
3.7404
 30
0.0
 10
6.4642
 20
3.9719
 30
0.0
 10
6.4642
 20
3.9719
 30
0.0
 10
6.4642
 20
3.9719
 30
0.0
 10
6.4642
 20
3.9719
 30
0.0
 10
6.5799
 20
4.1082
 30
0.0
 10
6.5799
 20
4.1082
 30
0.0
 10
6.5799
 20
4.1082
 30
0.0
 10
6.5799
 20
4.1082
 30
0.0
 10
6.8528
 20
3.866
 30
0.0
 10
6.8528
 20
3.866
 30
0.0
 10
6.8528
 20
3.866
 30
0.0
 10
6.9703
 20
3.945
 30
0.0
 10
7.0733
 20
3.9982
 30
0.0
 10
7.1614
 20
4.0259
 30
0.0
 10
7.1614
 20
4.0259
 30
0.0
 10
7.2771
 20
4.0627
 30
0.0
 10
7.4068
 20
4.081
 30
0.0
 10
7.5498
 20
4.081
 30
0.0
 10
7.5498
 20
4.081
 30
0.0
 10
7.7568
 20
4.081
 30
0.0
 10
7.9412
 20
4.0391
 30
0.0
 10
8.1025
 20
3.9553
 30
0.0
 10
8.1025
 20
3.9553
 30
0.0
 10
8.2644
 20
3.8716
 30
0.0
 10
8.3867
 20
3.7546
 30
0.0
 10
8.4694
 20
3.6035
 30
0.0
 10
8.4694
 20
3.6035
 30
0.0
 10
8.5517
 20
3.4521
 30
0.0
 10
8.5932
 20
3.2917
 30
0.0
 10
8.5932
 20
3.1219
 30
0.0
 10
8.5932
 20
3.1219
 30
0.0
 10
8.5932
 20
2.9949
 30
0.0
 10
8.5752
 20
2.8801
 30
0.0
 10
8.5395
 20
2.7771
 30
0.0
 10
8.5395
 20
2.7771
 30
0.0
 10
8.5117
 20
2.6981
 30
0.0
 10
8.459
 20
2.6058
 30
0.0
 10
8.381
 20
2.5
 30
0.0
 10
8.381
 20
2.5
 30
0.0
 10
8.381
 20
2.5
 30
0.0
 10
8.6401
 20
2.2686
 30
0.0
 10
8.6401
 20
2.2686
 30
0.0
 10
8.6401
 20
2.2686
 30
0.0
 10
8.6401
 20
2.2686
 30
0.0
 10
8.5244
 20
2.1322
 30
0.0
 10
8.5244
 20
2.1322
 30
0.0
 10
8.5244
 20
2.1322
 30
0.0
 10
8.5244
 20
2.1322
 30
0.0
 10
8.2531
 20
2.3749
 30
0.0
 10
8.2531
 20
2.3749
 30
0.0
 10
8.2531
 20
2.3749
 30
0.0
 10
8.1162
 20
2.2847
 30
0.0
 10
7.999
 20
2.2244
 30
0.0
 10
7.9021
 20
2.1942
 30
0.0
 10
7.9021
 20
2.1942
 30
0.0
 10
7.8052
 20
2.1642
 30
0.0
 10
7.6887
 20
2.1487
 30
0.0
 10
7.5527
 20
2.1487
 30
0.0
 10
7.5527
 20
2.1487
 30
0.0
 10
7.3452
 20
2.1487
 30
0.0
 10
7.1604
 20
2.19
 30
0.0
 10
6.9981
 20
2.2728
 30
0.0
 10
6.9981
 20
2.2728
 30
0.0
 10
6.8358
 20
2.3556
 30
0.0
 10
6.713
 20
2.4713
 30
0.0
 10
6.6294
 20
2.6209
 30
0.0
 10
6.6294
 20
2.6209
 30
0.0
 10
6.546
 20
2.77
 30
0.0
 10
6.5042
 20
2.9361
 30
0.0
 10
6.5042
 20
3.1191
 30
0.0
 10
6.5042
 20
3.1191
 30
0.0
 10
6.5042
 20
3.2423
 30
0.0
 10
6.5201
 20
3.3499
 30
0.0
 10
6.5531
 20
3.4422
 30
0.0
 10
6.5531
 20
3.4422
 30
0.0
 10
6.5855
 20
3.5344
 30
0.0
 10
6.6426
 20
3.6341
 30
0.0
 10
6.7234
 20
3.7404
 30
0.0
  0
SPLINE
  5
F3
330
1F
100
AcDbEntity
  8
VRSTVA_1
 62
   250
100
AcDbSpline
210
0.0
220
0.0
230
1.0
 70
    11
 71
     3
 72
    32
 73
    28
 74
     0
 42
0.0000000001
 43
0.0000000001
 40
0.0
 40
0.0
 40
0.0
 40
0.0
 40
0.125
 40
0.125
 40
0.125
 40
0.125
 40
0.25
 40
0.25
 40
0.25
 40
0.25
 40
0.375
 40
0.375
 40
0.375
 40
0.375
 40
0.5
 40
0.5
 40
0.5
 40
0.5
 40
0.625
 40
0.625
 40
0.625
 40
0.625
 40
0.75
 40
0.75
 40
0.75
 40
0.75
 40
1.0
 40
1.0
 40
1.0
 40
1.0
 10
6.9092
 20
3.5754
 30
0.0
 10
6.8414
 20
3.4888
 30
0.0
 10
6.7949
 20
3.4131
 30
0.0
 10
6.77
 20
3.3486
 30
0.0
 10
6.77
 20
3.3486
 30
0.0
 10
6.7455
 20
3.2837
 30
0.0
 10
6.7328
 20
3.2075
 30
0.0
 10
6.7328
 20
3.1204
 30
0.0
 10
6.7328
 20
3.1204
 30
0.0
 10
6.7328
 20
2.9192
 30
0.0
 10
6.801
 20
2.753
 30
0.0
 10
6.9375
 20
2.6214
 30
0.0
 10
6.9375
 20
2.6214
 30
0.0
 10
7.0738
 20
2.4901
 30
0.0
 10
7.2774
 20
2.4243
 30
0.0
 10
7.5489
 20
2.4243
 30
0.0
 10
7.5489
 20
2.4243
 30
0.0
 10
7.6552
 20
2.4243
 30
0.0
 10
7.7498
 20
2.4346
 30
0.0
 10
7.8325
 20
2.4549
 30
0.0
 10
7.8325
 20
2.4549
 30
0.0
 10
7.8941
 20
2.4695
 30
0.0
 10
7.9699
 20
2.5
 30
0.0
 10
8.0598
 20
2.5471
 30
0.0
 10
8.0598
 20
2.5471
 30
0.0
 10
8.0598
 20
2.5471
 30
0.0
 10
6.9092
 20
3.5754
 30
0.0
 10
6.9092
 20
3.5754
 30
0.0
  0
SPLINE
  5
F4
330
1F
100
AcDbEntity
  8
VRSTVA_1
 62
   250
100
AcDbSpline
210
0.0
220
0.0
230
1.0
 70
    11
 71
     3
 72
    28
 73
    24
 74
     0
 42
0.0000000001
 43
0.0000000001
 40
0.0
 40
0.0
 40
0.0
 40
0.0
 40
0.1428571428571428
 40
0.1428571428571428
 40
0.1428571428571428
 40
0.1428571428571428
 40
0.2857142857142857
 40
0.2857142857142857
 40
0.2857142857142857
 40
0.2857142857142857
 40
0.4285714285714285
 40
0.4285714285714285
 40
0.4285714285714285
 40
0.4285714285714285
 40
0.5714285714285714
 40
0.5714285714285714
 40
0.5714285714285714
 40
0.5714285714285714
 40
0.7142857142857143
 40
0.7142857142857143
 40
0.7142857142857143
 40
0.7142857142857143
 40
1.0
 40
1.0
 40
1.0
 40
1.0
 10
7.0513
 20
3.6882
 30
0.0
 10
7.0513
 20
3.6882
 30
0.0
 10
8.1975
 20
2.6642
 30
0.0
 10
8.1975
 20
2.6642
 30
0.0
 10
8.1975
 20
2.6642
 30
0.0
 10
8.2554
 20
2.7347
 30
0.0
 10
8.2959
 20
2.8001
 30
0.0
 10
8.3189
 20
2.8599
 30
0.0
 10
8.3189
 20
2.8599
 30
0.0
 10
8.3495
 20
2.938
 30
0.0
 10
8.3645
 20
3.0227
 30
0.0
 10
8.3645
 20
3.1134
 30
0.0
 10
8.3645
 20
3.1134
 30
0.0
 10
8.3645
 20
3.3138
 30
0.0
 10
8.294
 20
3.4788
 30
0.0
 10
8.1524
 20
3.6096
 30
0.0
 10
8.1524
 20
3.6096
 30
0.0
 10
8.0108
 20
3.74
 30
0.0
 10
7.8123
 20
3.8054
 30
0.0
 10
7.5569
 20
3.8054
 30
0.0
 10
7.5569
 20
3.8054
 30
0.0
 10
7.366
 20
3.8054
 30
0.0
 10
7.1971
 20
3.7663
 30
0.0
 10
7.0513
 20
3.6882
 30
0.0
  0
SPLINE
  5
F5
330
1F
100
AcDbEntity
  8
VRSTVA_1
 62
   250
100
AcDbSpline
210
0.0
220
0.0
230
1.0
 70
    11
 71
     3
 72
   124
 73
   120
 74
     0
 42
0.0000000001
 43
0.0000000001
 40
0.0
 40
0.0
 40
0.0
 40
0.0
 40
0.032258064516129
 40
0.032258064516129
 40
0.032258064516129
 40
0.032258064516129
 40
0.0645161290322581
 40
0.0645161290322581
 40
0.0645161290322581
 40
0.0645161290322581
 40
0.0967741935483871
 40
0.0967741935483871
 40
0.0967741935483871
 40
0.0967741935483871
 40
0.1290322580645161
 40
0.1290322580645161
 40
0.1290322580645161
 40
0.1290322580645161
 40
0.1612903225806452
 40
0.1612903225806452
 40
0.1612903225806452
 40
0.1612903225806452
 40
0.1935483870967742
 40
0.1935483870967742
 40
0.1935483870967742
 40
0.1935483870967742
 40
0.2258064516129032
 40
0.2258064516129032
 40
0.2258064516129032
 40
0.2258064516129032
 40
0.2580645161290323
 40
0.2580645161290323
 40
0.2580645161290323
 40
0.2580645161290323
 40
0.2903225806451613
 40
0.2903225806451613
 40
0.2903225806451613
 40
0.2903225806451613
 40
0.3225806451612903
 40
0.3225806451612903
 40
0.3225806451612903
 40
0.3225806451612903
 40
0.3548387096774194
 40
0.3548387096774194
 40
0.3548387096774194
 40
0.3548387096774194
 40
0.3870967741935484
 40
0.3870967741935484
 40
0.3870967741935484
 40
0.3870967741935484
 40
0.4193548387096774
 40
0.4193548387096774
 40
0.4193548387096774
 40
0.4193548387096774
 40
0.4516129032258064
 40
0.4516129032258064
 40
0.4516129032258064
 40
0.4516129032258064
 40
0.4838709677419355
 40
0.4838709677419355
 40
0.4838709677419355
 40
0.4838709677419355
 40
0.5161290322580645
 40
0.5161290322580645
 40
0.5161290322580645
 40
0.5161290322580645
 40
0.5483870967741935
 40
0.5483870967741935
 40
0.5483870967741935
 40
0.5483870967741935
 40
0.5806451612903226
 40
0.5806451612903226
 40
0.5806451612903226
 40
0.5806451612903226
 40
0.6129032258064516
 40
0.6129032258064516
 40
0.6129032258064516
 40
0.6129032258064516
 40
0.6451612903225806
 40
0.6451612903225806
 40
0.6451612903225806
 40
0.6451612903225806
 40
0.6774193548387096
 40
0.6774193548387096
 40
0.6774193548387096
 40
0.6774193548387096
 40
0.7096774193548387
 40
0.7096774193548387
 40
0.7096774193548387
 40
0.7096774193548387
 40
0.7419354838709677
 40
0.7419354838709677
 40
0.7419354838709677
 40
0.7419354838709677
 40
0.7741935483870968
 40
0.7741935483870968
 40
0.7741935483870968
 40
0.7741935483870968
 40
0.8064516129032258
 40
0.8064516129032258
 40
0.8064516129032258
 40
0.8064516129032258
 40
0.8387096774193549
 40
0.8387096774193549
 40
0.8387096774193549
 40
0.8387096774193549
 40
0.8709677419354839
 40
0.8709677419354839
 40
0.8709677419354839
 40
0.8709677419354839
 40
0.9032258064516129
 40
0.9032258064516129
 40
0.9032258064516129
 40
0.9032258064516129
 40
0.9354838709677419
 40
0.9354838709677419
 40
0.9354838709677419
 40
0.9354838709677419
 40
1.0
 40
1.0
 40
1.0
 40
1.0
 10
8.0254
 20
4.3317
 30
0.0
 10
8.0254
 20
4.3317
 30
0.0
 10
7.9924
 20
4.5795
 30
0.0
 10
7.9924
 20
4.5795
 30
0.0
 10
7.9924
 20
4.5795
 30
0.0
 10
8.1331
 20
4.6083
 30
0.0
 10
8.2343
 20
4.6567
 30
0.0
 10
8.2963
 20
4.7248
 30
0.0
 10
8.2963
 20
4.7248
 30
0.0
 10
8.3584
 20
4.7936
 30
0.0
 10
8.3894
 20
4.8768
 30
0.0
 10
8.3894
 20
4.9752
 30
0.0
 10
8.3894
 20
4.9752
 30
0.0
 10
8.3894
 20
5.0917
 30
0.0
 10
8.349
 20
5.1906
 30
0.0
 10
8.2681
 20
5.2709
 30
0.0
 10
8.2681
 20
5.2709
 30
0.0
 10
8.1872
 20
5.351
 30
0.0
 10
8.0871
 20
5.3914
 30
0.0
 10
7.9675
 20
5.3914
 30
0.0
 10
7.9675
 20
5.3914
 30
0.0
 10
7.8537
 20
5.3914
 30
0.0
 10
7.7596
 20
5.3542
 30
0.0
 10
7.6858
 20
5.2799
 30
0.0
 10
7.6858
 20
5.2799
 30
0.0
 10
7.6119
 20
5.2052
 30
0.0
 10
7.5748
 20
5.1106
 30
0.0
 10
7.5748
 20
4.9958
 30
0.0
 10
7.5748
 20
4.9958
 30
0.0
 10
7.5748
 20
4.9487
 30
0.0
 10
7.5842
 20
4.8905
 30
0.0
 10
7.6025
 20
4.8208
 30
0.0
 10
7.6025
 20
4.8208
 30
0.0
 10
7.6025
 20
4.8208
 30
0.0
 10
7.3848
 20
4.8486
 30
0.0
 10
7.3848
 20
4.8486
 30
0.0
 10
7.3848
 20
4.8486
 30
0.0
 10
7.3867
 20
4.8651
 30
0.0
 10
7.3875
 20
4.8783
 30
0.0
 10
7.3875
 20
4.8886
 30
0.0
 10
7.3875
 20
4.8886
 30
0.0
 10
7.3875
 20
4.994
 30
0.0
 10
7.3598
 20
5.089
 30
0.0
 10
7.3048
 20
5.1737
 30
0.0
 10
7.3048
 20
5.1737
 30
0.0
 10
7.2498
 20
5.2582
 30
0.0
 10
7.1646
 20
5.3006
 30
0.0
 10
7.0498
 20
5.3006
 30
0.0
 10
7.0498
 20
5.3006
 30
0.0
 10
6.959
 20
5.3006
 30
0.0
 10
6.8833
 20
5.2696
 30
0.0
 10
6.824
 20
5.2079
 30
0.0
 10
6.824
 20
5.2079
 30
0.0
 10
6.7643
 20
5.1464
 30
0.0
 10
6.7342
 20
5.0668
 30
0.0
 10
6.7342
 20
4.9694
 30
0.0
 10
6.7342
 20
4.9694
 30
0.0
 10
6.7342
 20
4.873
 30
0.0
 10
6.7648
 20
4.7926
 30
0.0
 10
6.825
 20
4.7287
 30
0.0
 10
6.825
 20
4.7287
 30
0.0
 10
6.8856
 20
4.6642
 30
0.0
 10
6.9769
 20
4.6228
 30
0.0
 10
7.0982
 20
4.6044
 30
0.0
 10
7.0982
 20
4.6044
 30
0.0
 10
7.0982
 20
4.6044
 30
0.0
 10
7.054
 20
4.3566
 30
0.0
 10
7.054
 20
4.3566
 30
0.0
 10
7.054
 20
4.3566
 30
0.0
 10
6.8875
 20
4.3867
 30
0.0
 10
6.7586
 20
4.4558
 30
0.0
 10
6.6675
 20
4.5631
 30
0.0
 10
6.6675
 20
4.5631
 30
0.0
 10
6.5762
 20
4.6708
 30
0.0
 10
6.5301
 20
4.8044
 30
0.0
 10
6.5301
 20
4.9643
 30
0.0
 10
6.5301
 20
4.9643
 30
0.0
 10
6.5301
 20
5.0744
 30
0.0
 10
6.554
 20
5.176
 30
0.0
 10
6.6011
 20
5.2687
 30
0.0
 10
6.6011
 20
5.2687
 30
0.0
 10
6.6487
 20
5.3613
 30
0.0
 10
6.713
 20
5.4323
 30
0.0
 10
6.7949
 20
5.4818
 30
0.0
 10
6.7949
 20
5.4818
 30
0.0
 10
6.8767
 20
5.5306
 30
0.0
 10
6.9632
 20
5.5556
 30
0.0
 10
7.0555
 20
5.5556
 30
0.0
 10
7.0555
 20
5.5556
 30
0.0
 10
7.1424
 20
5.5556
 30
0.0
 10
7.222
 20
5.5321
 30
0.0
 10
7.294
 20
5.485
 30
0.0
 10
7.294
 20
5.485
 30
0.0
 10
7.3655
 20
5.4379
 30
0.0
 10
7.4224
 20
5.3688
 30
0.0
 10
7.4647
 20
5.2772
 30
0.0
 10
7.4647
 20
5.2772
 30
0.0
 10
7.492
 20
5.3966
 30
0.0
 10
7.5494
 20
5.4892
 30
0.0
 10
7.6364
 20
5.5556
 30
0.0
 10
7.6364
 20
5.5556
 30
0.0
 10
7.7229
 20
5.6214
 30
0.0
 10
7.8316
 20
5.6544
 30
0.0
 10
7.9619
 20
5.6544
 30
0.0
 10
7.9619
 20
5.6544
 30
0.0
 10
8.1382
 20
5.6544
 30
0.0
 10
8.2878
 20
5.5904
 30
0.0
 10
8.4106
 20
5.4615
 30
0.0
 10
8.4106
 20
5.4615
 30
0.0
 10
8.5334
 20
5.3331
 30
0.0
 10
8.5945
 20
5.1703
 30
0.0
 10
8.5945
 20
4.9737
 30
0.0
 10
8.5945
 20
4.9737
 30
0.0
 10
8.5945
 20
4.7963
 30
0.0
 10
8.5419
 20
4.6491
 30
0.0
 10
8.436
 20
4.532
 30
0.0
 10
8.436
 20
4.532
 30
0.0
 10
8.3306
 20
4.4149
 30
0.0
 10
8.1938
 20
4.3481
 30
0.0
 10
8.0254
 20
4.3317
 30
0.0
  0
SPLINE
  5
F6
330
1F
100
AcDbEntity
  8
VRSTVA_1
 62
   250
100
AcDbSpline
210
0.0
220
0.0
230
1.0
 70
    11
 71
     3
 72
    92
 73
    88
 74
     0
 42
0.0000000001
 43
0.0000000001
 40
0.0
 40
0.0
 40
0.0
 40
0.0
 40
0.0434782608695652
 40
0.0434782608695652
 40
0.0434782608695652
 40
0.0434782608695652
 40
0.0869565217391304
 40
0.0869565217391304
 40
0.0869565217391304
 40
0.0869565217391304
 40
0.1304347826086956
 40
0.1304347826086956
 40
0.1304347826086956
 40
0.1304347826086956
 40
0.1739130434782609
 40
0.1739130434782609
 40
0.1739130434782609
 40
0.1739130434782609
 40
0.2173913043478261
 40
0.2173913043478261
 40
0.2173913043478261
 40
0.2173913043478261
 40
0.2608695652173913
 40
0.2608695652173913
 40
0.2608695652173913
 40
0.2608695652173913
 40
0.3043478260869565
 40
0.3043478260869565
 40
0.3043478260869565
 40
0.3043478260869565
 40
0.3478260869565217
 40
0.3478260869565217
 40
0.3478260869565217
 40
0.3478260869565217
 40
0.391304347826087
 40
0.391304347826087
 40
0.391304347826087
 40
0.391304347826087
 40
0.4347826086956522
 40
0.4347826086956522
 40
0.4347826086956522
 40
0.4347826086956522
 40
0.4782608695652174
 40
0.4782608695652174
 40
0.4782608695652174
 40
0.4782608695652174
 40
0.5217391304347826
 40
0.5217391304347826
 40
0.5217391304347826
 40
0.5217391304347826
 40
0.5652173913043478
 40
0.5652173913043478
 40
0.5652173913043478
 40
0.5652173913043478
 40
0.6086956521739131
 40
0.6086956521739131
 40
0.6086956521739131
 40
0.6086956521739131
 40
0.6521739130434783
 40
0.6521739130434783
 40
0.6521739130434783
 40
0.6521739130434783
 40
0.6956521739130435
 40
0.6956521739130435
 40
0.6956521739130435
 40
0.6956521739130435
 40
0.7391304347826086
 40
0.7391304347826086
 40
0.7391304347826086
 40
0.7391304347826086
 40
0.782608695652174
 40
0.782608695652174
 40
0.782608695652174
 40
0.782608695652174
 40
0.8260869565217391
 40
0.8260869565217391
 40
0.8260869565217391
 40
0.8260869565217391
 40
0.8695652173913043
 40
0.8695652173913043
 40
0.8695652173913043
 40
0.8695652173913043
 40
0.9130434782608695
 40
0.9130434782608695
 40
0.9130434782608695
 40
0.9130434782608695
 40
1.0
 40
1.0
 40
1.0
 40
1.0
 10
8.3203
 20
7.2037
 30
0.0
 10
8.3203
 20
7.2037
 30
0.0
 10
8.5588
 20
7.2037
 30
0.0
 10
8.5588
 20
7.2037
 30
0.0
 10
8.5588
 20
7.2037
 30
0.0
 10
8.5588
 20
7.2037
 30
0.0
 10
8.5588
 20
5.8683
 30
0.0
 10
8.5588
 20
5.8683
 30
0.0
 10
8.5588
 20
5.8683
 30
0.0
 10
8.499
 20
5.8665
 30
0.0
 10
8.4417
 20
5.8759
 30
0.0
 10
8.3867
 20
5.8971
 30
0.0
 10
8.3867
 20
5.8971
 30
0.0
 10
8.2954
 20
5.931
 30
0.0
 10
8.206
 20
5.9855
 30
0.0
 10
8.1176
 20
6.0602
 30
0.0
 10
8.1176
 20
6.0602
 30
0.0
 10
8.0296
 20
6.1356
 30
0.0
 10
7.9275
 20
6.2437
 30
0.0
 10
7.8118
 20
6.3849
 30
0.0
 10
7.8118
 20
6.3849
 30
0.0
 10
7.6317
 20
6.6045
 30
0.0
 10
7.4892
 20
6.7532
 30
0.0
 10
7.3838
 20
6.8302
 30
0.0
 10
7.3838
 20
6.8302
 30
0.0
 10
7.2789
 20
6.9075
 30
0.0
 10
7.1792
 20
6.9461
 30
0.0
 10
7.0855
 20
6.9461
 30
0.0
 10
7.0855
 20
6.9461
 30
0.0
 10
6.9873
 20
6.9461
 30
0.0
 10
6.9045
 20
6.9107
 30
0.0
 10
6.8367
 20
6.8406
 30
0.0
 10
6.8367
 20
6.8406
 30
0.0
 10
6.7695
 20
6.7701
 30
0.0
 10
6.7356
 20
6.6783
 30
0.0
 10
6.7356
 20
6.5655
 30
0.0
 10
6.7356
 20
6.5655
 30
0.0
 10
6.7356
 20
6.4461
 30
0.0
 10
6.7713
 20
6.3505
 30
0.0
 10
6.8433
 20
6.279
 30
0.0
 10
6.8433
 20
6.279
 30
0.0
 10
6.9148
 20
6.2071
 30
0.0
 10
7.014
 20
6.1708
 30
0.0
 10
7.1406
 20
6.1698
 30
0.0
 10
7.1406
 20
6.1698
 30
0.0
 10
7.1406
 20
6.1698
 30
0.0
 10
7.1148
 20
5.9149
 30
0.0
 10
7.1148
 20
5.9149
 30
0.0
 10
7.1148
 20
5.9149
 30
0.0
 10
6.9243
 20
5.9323
 30
0.0
 10
6.7794
 20
5.9982
 30
0.0
 10
6.6797
 20
6.112
 30
0.0
 10
6.6797
 20
6.112
 30
0.0
 10
6.5799
 20
6.2259
 30
0.0
 10
6.5301
 20
6.3792
 30
0.0
 10
6.5301
 20
6.5711
 30
0.0
 10
6.5301
 20
6.5711
 30
0.0
 10
6.5301
 20
6.7649
 30
0.0
 10
6.5841
 20
6.9183
 30
0.0
 10
6.6914
 20
7.0311
 30
0.0
 10
6.6914
 20
7.0311
 30
0.0
 10
6.7991
 20
7.1445
 30
0.0
 10
6.9322
 20
7.201
 30
0.0
 10
7.0913
 20
7.201
 30
0.0
 10
7.0913
 20
7.201
 30
0.0
 10
7.1721
 20
7.201
 30
0.0
 10
7.2517
 20
7.1844
 30
0.0
 10
7.3297
 20
7.1511
 30
0.0
 10
7.3297
 20
7.1511
 30
0.0
 10
7.4078
 20
7.1182
 30
0.0
 10
7.4902
 20
7.0631
 30
0.0
 10
7.5762
 20
6.9864
 30
0.0
 10
7.5762
 20
6.9864
 30
0.0
 10
7.6628
 20
6.9098
 30
0.0
 10
7.7813
 20
6.7823
 30
0.0
 10
7.9318
 20
6.6041
 30
0.0
 10
7.9318
 20
6.6041
 30
0.0
 10
8.0569
 20
6.4554
 30
0.0
 10
8.1416
 20
6.3599
 30
0.0
 10
8.1863
 20
6.3175
 30
0.0
 10
8.1863
 20
6.3175
 30
0.0
 10
8.2305
 20
6.2753
 30
0.0
 10
8.2751
 20
6.2404
 30
0.0
 10
8.3203
 20
6.2127
 30
0.0
 10
8.3203
 20
6.2127
 30
0.0
 10
8.3203
 20
6.2127
 30
0.0
 10
8.3203
 20
7.2037
 30
0.0
 10
8.3203
 20
7.2037
 30
0.0
  0
SPLINE
  5
F7
330
1F
100
AcDbEntity
  8
VRSTVA_1
 62
   250
100
AcDbSpline
210
0.0
220
0.0
230
1.0
 70
    11
 71
     3
 72
    20
 73
    16
 74
     0
 42
0.0000000001
 43
0.0000000001
 40
0.0
 40
0.0
 40
0.0
 40
0.0
 40
0.2
 40
0.2
 40
0.2
 40
0.2
 40
0.4
 40
0.4
 40
0.4
 40
0.4
 40
0.6
 40
0.6
 40
0.6
 40
0.6
 40
1.0
 40
1.0
 40
1.0
 40
1.0
 10
9.8
 20
1.2932
 30
0.0
 10
9.8
 20
1.2932
 30
0.0
 10
9.4471
 20
-1.2068
 30
0.0
 10
9.4471
 20
-1.2068
 30
0.0
 10
9.4471
 20
-1.2068
 30
0.0
 10
9.4471
 20
-1.2068
 30
0.0
 10
9.3688
 20
-1.2068
 30
0.0
 10
9.3688
 20
-1.2068
 30
0.0
 10
9.3688
 20
-1.2068
 30
0.0
 10
9.3688
 20
-1.2068
 30
0.0
 10
8.9925
 20
1.2932
 30
0.0
 10
8.9925
 20
1.2932
 30
0.0
 10
8.9925
 20
1.2932
 30
0.0
 10
8.9925
 20
1.2932
 30
0.0
 10
9.8
 20
1.2932
 30
0.0
 10
9.8
 20
1.2932
 30
0.0
  0
SPLINE
  5
F8
330
1F
100
AcDbEntity
  8
VRSTVA_1
 62
   250
100
AcDbSpline
210
0.0
220
0.0
230
1.0
 70
    11
 71
     3
 72
    20
 73
    16
 74
     0
 42
0.0000000001
 43
0.0000000001
 40
0.0
 40
0.0
 40
0.0
 40
0.0
 40
0.2
 40
0.2
 40
0.2
 40
0.2
 40
0.4
 40
0.4
 40
0.4
 40
0.4
 40
0.6
 40
0.6
 40
0.6
 40
0.6
 40
1.0
 40
1.0
 40
1.0
 40
1.0
 10
9.01
 20
-10.96
 30
0.0
 10
9.01
 20
-10.96
 30
0.0
 10
9.3629
 20
-8.46
 30
0.0
 10
9.3629
 20
-8.46
 30
0.0
 10
9.3629
 20
-8.46
 30
0.0
 10
9.3629
 20
-8.46
 30
0.0
 10
9.4412
 20
-8.46
 30
0.0
 10
9.4412
 20
-8.46
 30
0.0
 10
9.4412
 20
-8.46
 30
0.0
 10
9.4412
 20
-8.46
 30
0.0
 10
9.8175
 20
-10.96
 30
0.0
 10
9.8175
 20
-10.96
 30
0.0
 10
9.8175
 20
-10.96
 30
0.0
 10
9.8175
 20
-10.96
 30
0.0
 10
9.01
 20
-10.96
 30
0.0
 10
9.01
 20
-10.96
 30
0.0
  0
ENDSEC
  0
SECTION
  2
OBJECTS
  0
DICTIONARY
  5
C
330
0
100
AcDbDictionary
  3
ACAD_GROUP
350
D
  3
ACAD_LAYOUT
350
1A
  3
ACAD_MATERIAL
350
3B
  3
ACAD_MLEADERSTYLE
350
11B
  3
ACAD_MLINESTYLE
350
17
  3
ACAD_PLOTSETTINGS
350
19
  3
ACAD_VISUALSTYLE
350
2A
  3
ACDBHEADERROUNDTRIPXREC
350
F9
  3
ACDBVARIABLEDICTIONARY
350
119
  0
DICTIONARY
  5
D
102
{ACAD_REACTORS
330
C
102
}
330
C
100
AcDbDictionary
  0
DICTIONARY
  5
1A
102
{ACAD_REACTORS
330
C
102
}
330
C
100
AcDbDictionary
  0
DICTIONARY
  5
3B
102
{ACAD_REACTORS
330
C
102
}
330
C
100
AcDbDictionary
  3
BYBLOCK
350
3D
  3
BYLAYER
350
3C
  3
GLOBAL
350
3E
  0
DICTIONARY
  5
11B
102
{ACAD_REACTORS
330
C
102
}
330
C
100
AcDbDictionary
  0
DICTIONARY
  5
17
102
{ACAD_REACTORS
330
C
102
}
330
C
100
AcDbDictionary
  3
STANDARD
350
18
  0
DICTIONARY
  5
19
102
{ACAD_REACTORS
330
C
102
}
330
C
100
AcDbDictionary
  0
DICTIONARY
  5
2A
102
{ACAD_REACTORS
330
C
102
}
330
C
100
AcDbDictionary
  3
2DWIREFRAME
350
2F
  3
3D_HIDDEN
350
31
  3
3DWIREFRAME
350
30
  3
BASIC
350
32
  3
BRIGHTEN
350
36
  3
COLORCHANGE
350
3A
  3
CONCEPTUAL
350
34
  3
DIM
350
35
  3
FACEPATTERN
350
39
  3
FLAT
350
2B
  3
FLATWITHEDGES
350
2C
  3
GOURAUD
350
2D
  3
GOURAUDWITHEDGES
350
2E
  3
LINEPATTERN
350
38
  3
REALISTIC
350
33
  3
THICKEN
350
37
  0
DICTIONARY
  5
F9
102
{ACAD_REACTORS
330
C
102
}
330
C
100
AcDbDictionary
  3
CEPSNTYPE
350
102
  3
DIMSTYLEDATA
350
118
  3
FINGERPRINTGUID
350
103
  3
HYPERLINKBASE
350
FC
  3
INSUNITS
350
101
  3
LAYOUTDICT
350
FE
  3
LWETCUNION
350
100
  3
PLOTSETDICT
350
FF
  3
PSVPSCALE
350
105
  3
PUCSBASE
350
108
  3
PUCSORGBACK
350
10E
  3
PUCSORGBOTTOM
350
10A
  3
PUCSORGFRONT
350
10D
  3
PUCSORGLEFT
350
10B
  3
PUCSORGRIGHT
350
10C
  3
PUCSORGTOP
350
109
  3
PUCSORTHOREF
350
106
  3
PUCSORTHOVIEW
350
107
  3
STYLESHEET
350
FD
  3
TSTACKALIGN
350
FA
  3
TSTACKSIZE
350
FB
  3
UCSBASE
350
111
  3
UCSORGBACK
350
117
  3
UCSORGBOTTOM
350
113
  3
UCSORGFRONT
350
116
  3
UCSORGLEFT
350
114
  3
UCSORGRIGHT
350
115
  3
UCSORGTOP
350
112
  3
UCSORTHOREF
350
10F
  3
UCSORTHOVIEW
350
110
  3
VERSIONGUID
350
104
  0
DICTIONARY
  5
119
102
{ACAD_REACTORS
330
C
102
}
330
C
100
AcDbDictionary
  3
DIMASSOC
350
11C
  3
HIDETEXT
350
11D
  0
MATERIAL
  5
3D
102
{ACAD_REACTORS
330
3B
102
}
102
{ACAD_XDICTIONARY
360
120
102
}
330
3B
100
AcDbMaterial
  1
ByBlock
  0
MATERIAL
  5
3C
102
{ACAD_REACTORS
330
3B
102
}
102
{ACAD_XDICTIONARY
360
11E
102
}
330
3B
100
AcDbMaterial
  1
ByLayer
  0
MATERIAL
  5
3E
102
{ACAD_REACTORS
330
3B
102
}
102
{ACAD_XDICTIONARY
360
122
102
}
330
3B
100
AcDbMaterial
  1
Global
  0
MLINESTYLE
  5
18
102
{ACAD_REACTORS
330
17
102
}
330
17
100
AcDbMlineStyle
  2
Standard
 70
     0
  3

 62
   256
 51
90.0
 52
90.0
 71
     2
 49
0.5
 62
   256
  6
BYLAYER
 49
-0.5
 62
   256
  6
BYLAYER
  0
ACAD_PROXY_OBJECT
  5
2F
102
{ACAD_REACTORS
330
2A
102
}
330
2A
100
AcDbProxyObject
 90
      499
 91
      501
 93
      436
310
42CC9915DA5C99599C985B595049028333333333333E3BF0000000000000FB0107901411070040501600405405064090741402480A0340
1001
ACAD
1000
AcDbSavedByObjectVersion
1070
     0
  0
ACAD_PROXY_OBJECT
  5
31
102
{ACAD_REACTORS
330
2A
102
}
330
2A
100
AcDbProxyObject
 90
      499
 91
      501
 93
      500
310
424CD108121A5919195B90640502408333333333333E3BF0000000000000FB01079024090700405020000000000001110200405405064090740C02480A0340
1001
ACAD
1000
AcDbSavedByObjectVersion
1070
     0
  0
ACAD_PROXY_OBJECT
  5
30
102
{ACAD_REACTORS
330
2A
102
}
330
2A
100
AcDbProxyObject
 90
      499
 91
      501
 93
      436
310
42CCD915DA5C99599C985B595059028333333333333E3BF0000000000000FB0107901411070040501600405405064090741402480A0340
1001
ACAD
1000
AcDbSavedByObjectVersion
1070
     0
  0
ACAD_PROXY_OBJECT
  5
32
102
{ACAD_REACTORS
330
2A
102
}
330
2A
100
AcDbProxyObject
 90
      499
 91
      501
 93
      388
310
4150985CDA58D07406404333333333333E3BF0000000000000FB0107A41107004050150841D405064090741402480A0350
1001
ACAD
1000
AcDbSavedByObjectVersion
1070
     0
  0
ACAD_PROXY_OBJECT
  5
36
102
{ACAD_REACTORS
330
2A
102
}
330
2A
100
AcDbProxyObject
 90
      499
 91
      501
 93
      428
310
42109C9A59DA1D195B90C409028333333333333E3BF0000000000000FB010790141107004050150841D405064090741402480A029950
1001
ACAD
1000
AcDbSavedByObjectVersion
1070
     0
  0
ACAD_PROXY_OBJECT
  5
3A
102
{ACAD_REACTORS
330
2A
102
}
330
2A
100
AcDbProxyObject
 90
      499
 91
      501
 93
      452
310
42D0DBDB1BDC90DA185B99D95104090240C333333333333E3BF0000000000000FB0108901411070040501508421405064090741402480A0350
1001
ACAD
1000
AcDbSavedByObjectVersion
1070
     0
  0
ACAD_PROXY_OBJECT
  5
34
102
{ACAD_REACTORS
330
2A
102
}
330
2A
100
AcDbProxyObject
 90
      499
 91
      501
 93
      500
310
4290DBDB98D95C1D1D585B10940D028333333333333E3BF0000000000000FB0107902409070040501000000000000111010841D405064090740C02480A0340
1001
ACAD
1000
AcDbSavedByObjectVersion
1070
     0
  0
ACAD_PROXY_OBJECT
  5
35
102
{ACAD_REACTORS
330
2A
102
}
330
2A
100
AcDbProxyObject
 90
      499
 91
      501
 93
      412
310
40D11A5B50B409028333333333333E3BF0000000000000FB010790141107004050150841D405064090741402480A02677FFFFFD0
1001
ACAD
1000
AcDbSavedByObjectVersion
1070
     0
  0
ACAD_PROXY_OBJECT
  5
39
102
{ACAD_REACTORS
330
2A
102
}
330
2A
100
AcDbProxyObject
 90
      499
 91
      501
 93
      444
310
42D19858D95C185D1D195C9B90F409028333333333333E3BF0000000000000FB010790141107004050150841D405064090741402480A0350
1001
ACAD
1000
AcDbSavedByObjectVersion
1070
     0
  0
ACAD_PROXY_OBJECT
  5
2B
102
{ACAD_REACTORS
330
2A
102
}
330
2A
100
AcDbProxyObject
 90
      499
 91
      501
 93
      388
310
41119B185D240901404333333333333E3BF0000000000000F9010740A41107004050150841D405064090741402480A1B50
1001
ACAD
1000
AcDbSavedByObjectVersion
1070
     0
  0
ACAD_PROXY_OBJECT
  5
2C
102
{ACAD_REACTORS
330
2A
102
}
330
2A
100
AcDbProxyObject
 90
      499
 91
      501
 93
      476
310
43519B185D15DA5D1A115919D95CD0140901404333333333333E3BF0000000000000F9010740901411070040501600405405064090741402480A1B50
1001
ACAD
1000
AcDbSavedByObjectVersion
1070
     0
  0
ACAD_PROXY_OBJECT
  5
2D
102
{ACAD_REACTORS
330
2A
102
}
330
2A
100
AcDbProxyObject
 90
      499
 91
      501
 93
      412
310
41D1DBDD5C985D5910240902404333333333333E3BF0000000000000F9010740A411070040501641D405064090741402480A1B50
1001
ACAD
1000
AcDbSavedByObjectVersion
1070
     0
  0
ACAD_PROXY_OBJECT
  5
2E
102
{ACAD_REACTORS
330
2A
102
}
330
2A
100
AcDbProxyObject
 90
      499
 91
      501
 93
      500
310
4411DBDD5C985D5915DA5D1A115919D95CD0340902404333333333333E3BF0000000000000F9010740901411070040501600405405064090741402480A1B50
1001
ACAD
1000
AcDbSavedByObjectVersion
1070
     0
  0
ACAD_PROXY_OBJECT
  5
38
102
{ACAD_REACTORS
330
2A
102
}
330
2A
100
AcDbProxyObject
 90
      499
 91
      501
 93
      444
310
42D31A5B995C185D1D195C9B90E409028333333333333E3BF0000000000000FB010790141107004050750841D405064090741402483A0350
1001
ACAD
1000
AcDbSavedByObjectVersion
1070
     0
  0
ACAD_PROXY_OBJECT
  5
33
102
{ACAD_REACTORS
330
2A
102
}
330
2A
100
AcDbProxyObject
 90
      499
 91
      501
 93
      420
310
425499585B1A5CDD1A58D08409028333333333333E3BF0000000000000FB01079019070040501508421405064090741402480A1B40
1001
ACAD
1000
AcDbSavedByObjectVersion
1070
     0
  0
ACAD_PROXY_OBJECT
  5
37
102
{ACAD_REACTORS
330
2A
102
}
330
2A
100
AcDbProxyObject
 90
      499
 91
      501
 93
      412
310
41D51A1A58DAD95B90D409028333333333333E3BF0000000000000FB010790141107004050150C41D405064090741402480A0350
1001
ACAD
1000
AcDbSavedByObjectVersion
1070
     0
  0
XRECORD
  5
102
102
{ACAD_REACTORS
330
F9
102
}
330
F9
100
AcDbXrecord
 90
        0
  0
XRECORD
  5
118
102
{ACAD_REACTORS
330
F9
102
}
330
F9
100
AcDbXrecord
1000
DSTYLE
1002
{
1070
   340
340
11
1002
}
  0
XRECORD
  5
103
102
{ACAD_REACTORS
330
F9
102
}
330
F9
100
AcDbXrecord
  1
{C48E6F63-3C0D-4B5E-B9ED-27CC4F9F049F}
  0
XRECORD
  5
FC
102
{ACAD_REACTORS
330
F9
102
}
330
F9
100
AcDbXrecord
  1

  0
XRECORD
  5
101
102
{ACAD_REACTORS
330
F9
102
}
330
F9
100
AcDbXrecord
 90
        4
  0
XRECORD
  5
FE
102
{ACAD_REACTORS
330
F9
102
}
330
F9
100
AcDbXrecord
340
1A
  0
XRECORD
  5
100
102
{ACAD_REACTORS
330
F9
102
}
330
F9
100
AcDbXrecord
 90
    10781
  0
XRECORD
  5
FF
102
{ACAD_REACTORS
330
F9
102
}
330
F9
100
AcDbXrecord
340
19
  0
XRECORD
  5
105
102
{ACAD_REACTORS
330
F9
102
}
330
F9
100
AcDbXrecord
 40
0.0
  0
XRECORD
  5
108
102
{ACAD_REACTORS
330
F9
102
}
330
F9
100
AcDbXrecord
340
0
  0
XRECORD
  5
10E
102
{ACAD_REACTORS
330
F9
102
}
330
F9
100
AcDbXrecord
 10
0.0
 20
0.0
 30
0.0
  0
XRECORD
  5
10A
102
{ACAD_REACTORS
330
F9
102
}
330
F9
100
AcDbXrecord
 10
0.0
 20
0.0
 30
0.0
  0
XRECORD
  5
10D
102
{ACAD_REACTORS
330
F9
102
}
330
F9
100
AcDbXrecord
 10
0.0
 20
0.0
 30
0.0
  0
XRECORD
  5
10B
102
{ACAD_REACTORS
330
F9
102
}
330
F9
100
AcDbXrecord
 10
0.0
 20
0.0
 30
0.0
  0
XRECORD
  5
10C
102
{ACAD_REACTORS
330
F9
102
}
330
F9
100
AcDbXrecord
 10
0.0
 20
0.0
 30
0.0
  0
XRECORD
  5
109
102
{ACAD_REACTORS
330
F9
102
}
330
F9
100
AcDbXrecord
 10
0.0
 20
0.0
 30
0.0
  0
XRECORD
  5
106
102
{ACAD_REACTORS
330
F9
102
}
330
F9
100
AcDbXrecord
340
0
  0
XRECORD
  5
107
102
{ACAD_REACTORS
330
F9
102
}
330
F9
100
AcDbXrecord
 70
     0
  0
XRECORD
  5
FD
102
{ACAD_REACTORS
330
F9
102
}
330
F9
100
AcDbXrecord
  1

  0
XRECORD
  5
FA
102
{ACAD_REACTORS
330
F9
102
}
330
F9
100
AcDbXrecord
 90
        1
  0
XRECORD
  5
FB
102
{ACAD_REACTORS
330
F9
102
}
330
F9
100
AcDbXrecord
 90
       70
  0
XRECORD
  5
111
102
{ACAD_REACTORS
330
F9
102
}
330
F9
100
AcDbXrecord
340
0
  0
XRECORD
  5
117
102
{ACAD_REACTORS
330
F9
102
}
330
F9
100
AcDbXrecord
 10
0.0
 20
0.0
 30
0.0
  0
XRECORD
  5
113
102
{ACAD_REACTORS
330
F9
102
}
330
F9
100
AcDbXrecord
 10
0.0
 20
0.0
 30
0.0
  0
XRECORD
  5
116
102
{ACAD_REACTORS
330
F9
102
}
330
F9
100
AcDbXrecord
 10
0.0
 20
0.0
 30
0.0
  0
XRECORD
  5
114
102
{ACAD_REACTORS
330
F9
102
}
330
F9
100
AcDbXrecord
 10
0.0
 20
0.0
 30
0.0
  0
XRECORD
  5
115
102
{ACAD_REACTORS
330
F9
102
}
330
F9
100
AcDbXrecord
 10
0.0
 20
0.0
 30
0.0
  0
XRECORD
  5
112
102
{ACAD_REACTORS
330
F9
102
}
330
F9
100
AcDbXrecord
 10
0.0
 20
0.0
 30
0.0
  0
XRECORD
  5
10F
102
{ACAD_REACTORS
330
F9
102
}
330
F9
100
AcDbXrecord
340
0
  0
XRECORD
  5
110
102
{ACAD_REACTORS
330
F9
102
}
330
F9
100
AcDbXrecord
 70
     0
  0
XRECORD
  5
104
102
{ACAD_REACTORS
330
F9
102
}
330
F9
100
AcDbXrecord
  1
{FAEB1C32-E019-11D5-929B-00C0DF256EC4}
  0
DICTIONARYVAR
  5
11C
102
{ACAD_REACTORS
330
119
102
}
330
119
100
DictionaryVariables
280
     0
  1
2
  0
DICTIONARYVAR
  5
11D
102
{ACAD_REACTORS
330
119
102
}
330
119
100
DictionaryVariables
280
     0
  1
1
  0
DICTIONARY
  5
120
330
3D
100
AcDbDictionary
280
     1
  3
ACAD_XREC_ROUNDTRIP
360
121
  0
DICTIONARY
  5
11E
330
3C
100
AcDbDictionary
280
     1
  3
ACAD_XREC_ROUNDTRIP
360
11F
  0
DICTIONARY
  5
122
330
3E
100
AcDbDictionary
280
     1
  3
ACAD_XREC_ROUNDTRIP
360
123
  0
XRECORD
  5
121
102
{ACAD_REACTORS
330
120
102
}
330
120
100
AcDbXrecord
102
MATERIAL
148
0.0
149
0.0
149
0.0
 93
        0
 94
      127
282
     0
 72
     1
 77
     1
171
     1
175
     1
179
     1
273
     0
  0
XRECORD
  5
11F
102
{ACAD_REACTORS
330
11E
102
}
330
11E
100
AcDbXrecord
102
MATERIAL
148
0.0
149
0.0
149
0.0
 93
        0
 94
      127
282
     0
 72
     1
 77
     1
171
     1
175
     1
179
     1
273
     0
  0
XRECORD
  5
123
102
{ACAD_REACTORS
330
122
102
}
330
122
100
AcDbXrecord
102
MATERIAL
148
0.0
149
0.0
149
0.0
 93
        0
 94
      127
282
     0
 72
     1
 77
     1
171
     1
175
     1
179
     1
273
     0
  0
ENDSEC
  0
EOF
